» » »

Built To Spill - Gone Tabs

Artists:  A B C D E F G H I J K L M N O P Q R S T U V W X Y Z # 

Gone Tabs

(ver. 1) Click to play this song!
Built To Spill
 Rating:
4/5 (5 votes)

 Gone lessons Tabs too difficult? Try these video lessons and learn fast
 
                (Intro)
Built to Spill
You In Reverse
'Gone'

Standard Tuning:


       Dm            Am         C         G    F
e|------1-----1--|---0---|---0-------0-|--0--|-1-||
b|-----3--3---3--|--0h1--|----0h1----1-|--3--|-1-||
g|--0h2--0h2--2--|--2--2-|---0--0----0-|--0--|-2-||
d|-0-------0--0--|--2--2-|---2----2--3-|--0--|-3-||  repeat as necessary and
a|---------------|-0---0-|--3-----3--3-|--2--|-3-||  improvise, this is a guide
E|---------------|-------|-------------|--3--|-1-||  of how I play, not exact

then the main solo, which I thought i'd include cause its so badass

e|---------------------------------------------------------------|
b|-15----15-17-18-17-15--15-------15------15-14-13-12-10---------|
g|---------------------17--17--17---------14-13-12-11--9---------|
d|---------------------------19-----------15-14-13-12-10---------|
a|---------------------------------------------------------------|
E|---------------------------------------------------------------|

e|-----------------------------------------------------|
b|-10----10-12-13-12-10--10----------------------------|
g|---------------------12--12--12----------------------|
d|---------------------------14--14h15p14h15h17--17----|
a|---------------------------------------------15------|
E|-----------------------------------------------------|

e|---------------------------------|
b|---------------------------------|  I usually jam on this for awhile longer
g|---------------------------------|  but I thought I would just get started
d|---------------------------------|  so people can do what they wanted with
a|-14h15p14h15p17----8-------------|  this part
E|----------------15---------------|

I'm doing this all from memory because I'm at work now, so if it sounds wrong, it is 
forgive me, but hopefully you will all find this useful.

thanks,
            
Submit corrections


        Gone lessons Hard to play? Try these video lessons and learn fast Gone lessons
        
↑ Back to top | Tablatures and chords for acoustic guitar and electric guitar, ukulele, drums are parodies/interpretations of the original songs. You may use it for private study, scholarship, research or language learning purposes only