» » »

Built To Spill - Gone Bass

Artists:  A B C D E F G H I J K L M N O P Q R S T U V W X Y Z # 

Gone Bass

(ver. 2) Click to play this song!
Built To Spill
 Rating:
4/5 (4 votes)


 Gone lessons Tabs too difficult? Try these video lessons and learn fast
 
                
Note: Although tabbed notes are evenly spaced, the rhythm is
 not necessarily uniform throughout.

Key:

h = hammer on
s = slide
^ = bend
+ = held note

Tuning: Standard EADG

G|----------------------------------------------------------------|
D|----------------------------------------------------------------|
A|-------------------------------------10--10--10--10--10---------|
E|-5--5--5--5--5--7--8--8--8--8--8--7-----------------------------|

----------------------------------------------------------------|
----------------------------------------------------------------|
-8--8--8--8--8--8--8--8--8--8--8--8--8--8--7--------------------|
----------------------------------------------------------------|

----------------------------------------------------------------|
-------------7--------------------7-----------------------------|
-5--5--5--5-----5--5--5--5--5--5-----5--------------------------|
----------------------------------------5--5--5--5--5--7--8--8--|

----------------------------------------------------------------|
----------------------------------------------------------------|
----------------10--10--10--10--10--10--10--7--8--8--8--8--8--8-|
-8--8--8--8--7--------------------------------------------------|

----------------------------------------------------------------|
----------------------------------------7-----------------7-----|
-8--8--8--8--8--8--8--8--7--5--5--5--5-----5--5--5--5--5-----5--|
----------------------------------------------------------------|

----------------------------------------------------------------|
----------------------------------------------------------------|
-------------------------------------10--10--10--10--10--10--7--|
-5--5--5--5--5--7--8--8--8--8--8--7-----------------------------|

----------------------------------------------------------------|
----------------------------------------------------------------|
-8--8--8--8--8--8--8--8--8--8--8--8--8--8--8--------------------|
----------------------------------------------------------------|

----------------------------------------------------------------|
----7--------7--------7--------7--------------------------------|
-5-----5--5-----5--5-----5--5-----5-----------------------------|
-------------------------------------5--5--5--5--5--5--7--8--8--|

----------------------------------------------------------------|
----------------------------------------------------------------|
----8h10--8--7^--5--5--5--5--5--5--5s8--8--8--8--8--8--8--8--8--|
-8--------------------------------------------------------------|

----------------------------------------------------------------|
----------------------------------------------------------------|
-8--8--8--8--8--8-----------------------------------------------|
----------------------------------------------------------------|

----------------------------------------------------------------|
----7--------7--------7--------7--------------------------------|
-5-----5--5-----5--5-----5--5-----5-----------------------------|
-------------------------------------5--5--5--5--5--5--7--8--8--|

----------------------------------------------------------------|
----------------------------------------------------------------|
----8h10--8--7^--5--5--5--5--5--5--5s8--8--8--8--8--8--8--------|
-8--------------------------------------------------------------|

----------------------------------------------------------------|
-10h------------------------------------------------------------|
------7h--10h--8h--5--5--5--5--8--8--8--8s10--10--10--10--10-10-|
----------------------------------------------------------------|

----------------------------------------------------------------|
----------------------------------------------------------------|
-10--10---------------------------------------------------------|
----------------------------------------------------------------|

----------------------------------------------------------------|
-10h------------------------------------------------------------|
------7h--10h--8h--5--5--5--5--8--8--8--8s10--10--10--10--10-10-|
----------------------------------------------------------------|

----------------------------------------------------------------|
----------------------------------------------------------------|
-10--10---------------------------------------------------------|
----------------------------------------------------------------|

----------------------------------------------------------------|
-7+--5+--12+------7+--10+--12+------7+--5+--12+-----------------|
----------------------------------------------------------------|
----------------------------------------------------------------|

----------------------------------------------------------------|
-7+--10+--12+------7+--5+--12+------7+--10+--12+----------------|
----------------------------------------------------------------|
----------------------------------------------------------------|

----------------------------------------------------------------|
----------------------------------------------------------------|
-------7--5--------------7--5--------------7--5-----------------|
-6--6--------6--6--6--6--------6--6--6--6--------6--6-----------|

----------------------------------------------------------------|
----------------0--2--3-----------------------------------------|
-------0--1--3--------------------------------------------------|
-1--3-----------------------------------------------------------|


----------------------------------------------------------------|
-------------------5--------------------5--------------------5--|
-------7--5-----------------7--5----------------7--5------------|
-6--6--------6--6-----6--6--------6--6-----6--6--------6--6-----|

----------------------------------------------------------------|
----------------0--2--3-----------------------------------------|
-------0--1--3--------------------------------------------------|
-1--3-----------------------------------------------------------|

----------------------------------------------------------------|
----------------------------------------------------------------|
-------7--5--------------7--5--------------7--5-----------------|
-6--6--------6--6--6--6--------6--6--6--6--------6--6-----------|

----------------------------------------------------------------|
----------------0--2--3-----------------------------------------|
-------0--1--3--------------------------------------------------|
-1--3-----------------------------------------------------------|

-------7---------------------------------------------------|
----7-----7--------------8-----10--10----------------------|
-5-----------5--------8-----8----------8--8--7--7--7h8-----|
----------------5--6------------------------------------8--|

-------7---------------------------------------------------|
----7-----7--------------8-----10--10----------------------|
-5-----------5--------8-----8----------8--8--7--7--7h8-----|
----------------5--6------------------------------------8--|

-------7---------------------------------------------------|
----7-----7--------------8-----10--10----------------------|
-5-----------5--------8-----8----------8--8--7--7--7h8-----|
----------------5--6------------------------------------8--|

-------7---------------------------------------------------|
----7-----7--------------8-----10--10----------------------|
-5-----------5--------8-----8----------8--8--7--7--7h8-----|
----------------5--6------------------------------------8--|

-------7---------------------------------------------------|
----7-----7--------------8-----10--10----------------------|
-5-----------5--------8-----8----------8--8--7--7--7h8-----|
----------------5--6------------------------------------8--|

-------7---------------------------------------------------|
----7-----7--------------8-----10--10----------------------|
-5-----------5--------8-----8----------8--8--7--7--7h8-----|
----------------5--6------------------------------------8--|

-------7---------------------------------------------------|
----7-----7--------------8-----10--10----------------------|
-5-----------5--------8-----8----------8--8--7--7--7h8-----|
----------------5--6------------------------------------8--|

-------7---------------------------------------------------|
----7-----7--------------8-----10--10----------------------|
-5-----------5--------8-----8----------8--8--7--7--7h8-----|
----------------5--6------------------------------------8--|

-------7---------------------------------------------------|
----7-----7--------------8-----10--10----------------------|
-5-----------5--------8-----8----------8--8--7--7--7h8-----|
----------------5--6------------------------------------8--|

-------7---------------------------------------------------|
----7-----7--------------8-----10--10----------------------|
-5-----------5--------8-----8----------8--8--7--7--7h8-----|
----------------5--6------------------------------------8--|
            
Submit corrections



        Gone lessons Hard to play? Try these video lessons and learn fast Gone lessons
        
↑ Back to top | Tablatures and chords for acoustic guitar and electric guitar, ukulele, drums are parodies/interpretations of the original songs. You may use it for private study, scholarship, research or language learning purposes only