Home » B » Buena Vista Social Club »

Buena Vista Social Club - Veinte Anos Tabs

Artists:  A B C D E F G H I J K L M N O P Q R S T U V W X Y Z # 

Veinte Anos Tabs

(ver. 2) Click to play this song!
Buena Vista Social Club
Buena vista social club


Intro:Em,B7,Em,E7,Am,Em,C,B7,Em

e--7-7-8-8-7-7-8s12~----|-15-15-14-14-12-11---|-----------------------7-8---|
b-----------------------|-15-15-14-14-13-12---|--------------------10-------|
g-----------------------|---------------------|-------------7-9-10----------|
d-----------------------|---------------------|------7-9-10-----------------|
a-----------------------|---------------------|-9-10------------------------|
E-----------------------|---------------------|-----------------------------|

e----------------------------------|
b-----------------10-13-12--10-8~--|
g---------9-11-12------------------|
d----9-10--------------------------|
a-12-------------------------------|
E----------------------------------|

e--7-7-8-8-7-7-8s12~-12-10-8-7--|-10-8-7--------------------------------|
b-------------------------------|--------10-----------------10-8s/////--|
g-------------------------------|-------------------9-11-12-------------|
d-------------------------------|--------------9-10---------------------|
a-------------------------------|------------0--------------------------|
E-------------------------------|---------------------------------------|

e-----7-8----7--7-9--11-12-|
b--10-----10---------------|
g--------------------------|
d--------------------------|
a--------------------------|
E--------------------------|

                        Em
¿Qué te importa que te ame,
                    B7
si tú no me quieres ya?
                  
El amor que ya ha pasado
                Em
no se debe recordar 

                     Em
Fui la ilusión de tu vida
   E7         Am
un día lejano ya,
Am                Em
Hoy represento el pasado,
      C     B7     Em
no me puedo conformar. 
Am                    Em
  Hoy represento al pasado,
      C     B7     Em
no me puedo conformar. 

        D
Si las cosas que uno quiere
     D7           G
se pudieran alcanzar,
      Am            B7
tú me quisieras lo mismo 
     B7           Em
que veinte años atrás. 

    E7
Con qué tristeza miramos
                   Am
un amor que se nos va
Am                 Em
Es un pedazo del alma
         C     B7    Em
que se arranca sin piedad.
Am                   Em
   Es un pedazo del alma
         C     B7     Em
que se arranca sin piedad.

---SOLO:

e--7-7-8-8-7-7-8s12~-12--|-7-7-8-8-7---------|-7-7-8-8-7-7-8s14-12-11-8-7--------7-|
b------------------------|-----------10-8-7--|----------------------------7-8-10---|
g------------------------|-------------------|-------------------------------------|
d------------------------|-------------------|-------------------------------------|
a------------------------|-------------------|-------------------------------------|
E------------------------|-------------------|-------------------------------------|


e--7-7-8-8-7-7-8s12~--12-12-10-7----7-8-|----7-8-11-12-14-12-------------------|
b--------------------------------10-----|-10------------------7--8-5-8-5-7-4-5-|
g---------------------------------------|--------------------------------------|
d---------------------------------------|--------------------------------------|
a---------------------------------------|--------------------------------------|
E---------------------------------------|--------------------------------------|(bis)
            
Submit corrections

↑ Back to top | Tablatures and chords for acoustic guitar and electric guitar, ukulele, drums are parodies/interpretations of the original songs. You may use it for private study, scholarship, research or language learning purposes only