Home » B » Buena Vista Social Club »

Buena Vista Social Club - Chan Chan Tabs

Artists:  A B C D E F G H I J K L M N O P Q R S T U V W X Y Z # 

Chan Chan Tabs

(ver. 2) Click to play this song!
Buena Vista Social Club
[Loop whole song]
  Dm         F                       Gm         A7
  1        2        3        4       1       2       3         4
e|-1-----1-x--1--------------1-----|-3-----3-x--0--------------0----------|
B|-3-----3-x--1--------------1-----|-3-----3-x--2--------------2----------|
G|-2-----2-x--2--------------2-----|-3-----3-x--0--------------0----------|
D|-0-----0-x--3--------------3-----|-5-----5-x--2--------------2----------|
A|---------x--3--------------3-----|-5-----5-x--0--------------0----------|
E|---------x--1--------------1-----|-3-----3-x----------------------------|

[Riff 1]

e|---1-----0--------------------------------|
B|-3-1--1-3-3-------------------------------|
G|-2----------2--2-0------------------------|
D|-------------------3-2-0--3---0-2-0-------|
A|----------------------------3-------0-----|
E|------------------------------------------|


e|-5-3-1-0-------------------------------------------------------------------|
B|---------3-----------------------------------------------------------------|
G|---------------------------------------------------------------------------|
D|---------------------------------------------------------------------------|
A|---------------------------------------------------------------------------|
E|---------------------------------------------------------------------------|

[Riff 2]

e|-----1-------------------0-------------------------------------------------|
B|-3-3---3--1-1-1---1--------3-----------------------------------------------|
G|----------------2----0-3------2-2-2-0-2------------------------------------|
D|---------------------------------------------------------------------------|
A|---------------------------------------------------------------------------|
E|---------------------------------------------------------------------------|


[Riff 3]

e|-----1-----------------0---------------------------------------------------|
B|-3-3---3-1---1-1---------3-2-----------------------------------------------|
G|-----------2-------0-3-------2---------------------------------------------|
D|---------------------------------------------------------------------------|
A|---------------------------------------------------------------------------|
E|---------------------------------------------------------------------------|

[Solo]

e|-----------4-5---------5--------6------------------------------------------|
B|-----5-6-8-----6-5-------6-5------8---5------------6-------5-----6-5-------|
G|-5-7---------------7---------7------7---6----7-7-7---7-5-5---5-------7-6---|
D|-------------------------------------------7-------------------8-----------|
A|---------------------------------------------------------------------------|
E|---------------------------------------------------------------------------|


e|-----------------------5---------------------------------------------------|
B|---5-----5-------5-6-8-------6-8-8--5-6---5--------------------------------|
G|-6---7-6---7-6-7-----------5------------7---6------------------------------|
D|---------------------------------------------------------------------------|
A|---------------------------------------------------------------------------|
E|---------------------------------------------------------------------------|


Dm F Gm A7 
Played in 4/4

[Dm] Downstroke Upstroke Stop [F] Downstroke downstroke
[Gm] Downstroke Upstroke Stop [A7] Downstroke downstroke            
Submit corrections

↑ Back to top | Tablatures and chords for acoustic guitar and electric guitar, ukulele, drums are parodies/interpretations of the original songs. You may use it for private study, scholarship, research or language learning purposes only