Home » B » Budgie »

Budgie - Hot As A Docker's Armpit Bass

Artists:  A B C D E F G H I J K L M N O P Q R S T U V W X Y Z # 

Hot As A Docker's Armpit Bass

(ver. 1) Click to play this song!
Budgie
Hot as a Docker's Armpit
Bass Tab (4 string, standard tuning)

Opening Riff
G|------------------------------------------------------|
D|------------------------------------------------------|
A|----------(7)-(7)-(7)-(7)-(7)-(7)-(7)-(7)-------------|
E|------------------------------------------------------|4x

G|------------------------------------------------------|
D|------------------------------------------------------|
A|----------(7)-(7)-(7)-(7)-(7)-(7)-(7)-(7)-------------|
E|-5-5-5-5----------------------------------------------|

G|----------------5-------------------------------------|
D|------------5-7---7-5---------------------------------|
A|----------7-------------------------------------------|
E|-5-5-5-5----------------------------------------------|

G|------------------------------------------------------|
D|------------------------------------------------------|
A|----------(7)-(7)-(7)-(7)-(7)-(7)-(7)-(7)-------------|
E|-5-5-5-5----------------------------------------------|

G|----------------5-------------------------------------|
D|------------5-7---7-5---------------------------------|
A|----------7-------------------------------------------|
E|-5-5-5-5----------------------------------------------|

Verse Riff

G|------------------------------------------------------|
D|------------------------------------------------------|
A|------------------------------------------------------|
E|-0-2-3--0-2-3--0-2-3-6-6-6-6-6-5-3-0------------------|5x

Pre-Chorus
G|----------------------------------------------------------------|
D|----------------------------------------------------------------|
A|-------------14/2-2-0-2-3-------------14/2-2-0-2-3-3-3-3-3-3-3-3|
E|-14/2-0-2-3----------------14/2-0-2-3---------------------------|


Chorus
G|------------------------------------------------------|
D|------------------------------------------------------|
A|------------------------------------------------------|
E|-0-0-2-0-3-0-5-0-6-6-6/3------------------------------|4x

Verse Riff

G|------------------------------------------------------|
D|------------------------------------------------------|
A|------------------------------------------------------|
E|-0-2-3--0-2-3--0-2-3-6-6-6-6-6-5-3-0------------------|5x

Pre-Chorus
G|----------------------------------------------------------------|
D|----------------------------------------------------------------|
A|-------------14/2-2-0-2-3-------------14/2-2-0-2-3-3-3-3-3-3-3-3|
E|-14/2-0-2-3----------------14/2-0-2-3---------------------------|


Chorus
G|------------------------------------------------------|
D|------------------------------------------------------|
A|------------------------------------------------------|
E|-0-0-2-0-3-0-5-0-6-6-6/3------------------------------|4x

Bridge to Guitar Solo
G|------------------------------------------------------|
D|------------------------------------------------------|
A|--------5---------------------------------------------|
E|-7-5-7----7-5-3-2-1-0---------------------------------|2x

Guitar Solo Riff #1
G|--------------------------------5---------------------|
D|-----------5-5-5-5-5--7-7-7-7-7----9------------------|
A|-7-7-7-7-7--------------------------------------------|
E|------------------------------------------------------|3x

Guitar Solo Riff #2
G|------------------------------------------------------|
D|------------------------------------------------------|
A|-7-7-7-7-7-5-5-5-5-5----------------------------------|
E|---------------------8-8-8-8-8-7-7-7-7-7--------------|

Guitar Solo Riff #1
G|-------------------------------5----------------------|
D|-----------5-5-5-5-5-7-7-7-7-7----9-------------------|
A|-7-7-7-7-7--------------------------------------------|
E|------------------------------------------------------|8x

Guitar Solo Riff #3

G|------------------------------------------------------|
D|-------5----------------------------------------------|
A|-7-5-7---7-5------------------------------------------|
E|-------------8-7-6-5----------------------------------|2x


Guitar Solo Riff #1
G|--------------------------------5---------------------|
D|-----------5-5-5-5-5--7-7-7-7-7----9------------------|
A|-7-7-7-7-7--------------------------------------------|
E|------------------------------------------------------|8x

End Riff
G|------------------------------------------------------|
D|------------------------------------------------------|
A|-7--7-7-7-7--7-7-7-7-7-7-7-7-7-7-7-7-7----------------|
E|------------------------------------------------------|8x
(fast triplets)

I found a partial tab for this song, and figured the rest out from there.
It's fairly easy to play except for the triplets at the end.  Enjoy!
            
Submit corrections

↑ Back to top | Tablatures and chords for acoustic guitar and electric guitar, ukulele, drums are parodies/interpretations of the original songs. You may use it for private study, scholarship, research or language learning purposes only