Home » B » Budgie »

Budgie - Forearm Smash Bass

Artists:  A B C D E F G H I J K L M N O P Q R S T U V W X Y Z # 

Forearm Smash Bass

(ver. 2) Click to play this song!
Budgie
Band: Budgie
Bass Tab

Main Verse Riff
G|-------------------------------------------7---7-9-|
D|-----------------------5-6-7-7-5-7-9-9-7-9---9-----|
A|-------------------7-7-----------------------------|
E|-3-5-5-5-5-5-5-5-5---------------------------------|4x


Verse Riff #2
G|-------------------|
D|-------------------|
A|-3-5-5-5-5-5-5-5-5-|
E|-------------------|1x

Bridge to Chorus Riff
G|------------------------------------7---7-9-|
D|------------------5-6-7-5-7-9-9-7-9---9-----|
A|--------------7-7---------------------------|
E|----3-5-5-5-5-------------------------------|2x

Chorus Riff
G|------------------------------------------------------|
D|------------------------------------------------------|
A|-7-7-7-7-9-7-5-7-7-7-7-9-7-5--------------------------|
E|------------------------------------------------------|2x

Main Riff
G|-------------------------------------------7---7-9-|
D|-----------------------5-6-7-7-5-7-9-9-7-9---9-----|
A|-------------------7-7-----------------------------|
E|-3-5-5-5-5-5-5-5-5---------------------------------|4x


Verse Riff #2
G|-------------------|
D|-------------------|
A|-3-5-5-5-5-5-5-5-5-|
E|-------------------|1x

Bridge to Chorus Riff
G|------------------------------------7---7-9-|
D|------------------5-6-7-5-7-9-9-7-9---9-----|
A|--------------7-7---------------------------|
E|----3-5-5-5-5-------------------------------|2x

Chorus Riff
G|------------------------------------------------------|
D|------------------------------------------------------|
A|-7-7-7-7-9-7-5-7-7-7-7-9-7-5--------------------------|
E|------------------------------------------------------|1x

Bridge to Guitar Solo Riff
G|-----------------------7---7-9-----------------------------12----12-14-|
D|-----5-6-7-5-7-9-9-7-9---9------------10-11-12-10-12-14-14----14-------|
A|-7-7----------------------------12-12----------------------------------|
E|-----------------------------------------------------------------------|1x

Guitar Solo Riff Part 1
G|------------------------------------------------------|
D|------------------------------------------------------|
A|------------------------------------------------------|
E|-3-5-5-5-5-5-5-5-5-5-5--------------------------------|8x

Bridge to Guitar Solo Riff Part 2
G|------------------------------------------------------|
D|------------------------------------------------------|
A|-0-0-2-2-3-3------------------------------------------|
E|------------------------------------------------------|1x


Guitar Solo Riff Part 2
G|------------------------------------------------------|
D|------------------------------------------------------|
A|-3-5-5-5-5-5-5-5-5-5-5--------------------------------|
E|------------------------------------------------------|1x

Guitar Solo Riff Part 1
G|------------------------------------------------------|
D|------------------------------------------------------|
A|------------------------------------------------------|
E|-3-5-5-5-5-5-5-5-5-5-5--------------------------------|2x

Bridge to Guitar Solo Riff Part 2
G|------------------------------------------------------|
D|------------------------------------------------------|
A|-0-0-2-2-3-3------------------------------------------|
E|------------------------------------------------------|1x

Bridge from Guitar Solo to Verse
G|------------------------------------------------------|
D|------------------------------------------------------|
A|-7-5-3------------------------------------------------|
E|-------5-3-5-5----------------------------------------|1x

Main Riff
G|-----------------------------------------------7---7-9-|
D|---------------------------5-6-7-7-5-7-9-9-7-9---9-----|
A|-----------------------7-7-----------------------------|
E|-3-5-5-5-5-5-5-5-5-5-5---------------------------------|4x


Verse Riff #2
G|-------------------|
D|-------------------|
A|-3-5-5-5-5-5-5-5-5-|
E|-------------------|1x

Bridge to Chorus Riff
G|------------------------------------7---7-9-|
D|------------------5-6-7-5-7-9-9-7-9---9-----|
A|--------------7-7---------------------------|
E|----3-5-5-5-5-------------------------------|2x

Chorus Riff
G|------------------------------------------------------|
D|------------------------------------------------------|
A|-7-7-7-7-9-7-5-7-7-7-7-9-7-5--------------------------|
E|------------------------------------------------------|1x

Bridge to Guitar Solo Riff
G|-----------------------7---7-9-----------------------------12----12-14-|
D|-----5-6-7-5-7-9-9-7-9---9------------10-11-12-10-12-14-14----14-------|
A|-7-7----------------------------12-12----------------------------------|
E|-----------------------------------------------------------------------|1x

Guitar Solo Riff Part 1
G|------------------------------------------------------|
D|------------------------------------------------------|
A|------------------------------------------------------|
E|-3-5-5-5-5-5-5-5-5-5-5--------------------------------|8x

Bridge to Guitar Solo Riff Part 2
G|------------------------------------------------------|
D|------------------------------------------------------|
A|-0-0-2-2-3-3------------------------------------------|
E|------------------------------------------------------|1x


Guitar Solo Riff Part 2
G|------------------------------------------------------|
D|------------------------------------------------------|
A|-3-5-5-5-5-5-5-5-5-5-5--------------------------------|
E|------------------------------------------------------|1x

Guitar Solo Riff Part 1
G|------------------------------------------------------|
D|------------------------------------------------------|
A|------------------------------------------------------|
E|-3-5-5-5-5-5-5-5-5-5-5--------------------------------|2x

Bridge to Guitar Solo Riff Part 2
G|------------------------------------------------------|
D|------------------------------------------------------|
A|-0-0-2-2-3-3------------------------------------------|
E|------------------------------------------------------|1x

Chorus Riff
G|------------------------------------------------------|
D|------------------------------------------------------|
A|-7-7-7-7-9-7-5-7-7-7-7-9-7-5--------------------------|
E|------------------------------------------------------|1x

Bridge to End Riff
G|-----------------------7---7-9-----------------------------12----12-14-|
D|-----5-6-7-5-7-9-9-7-9---9------------10-11-12-10-12-14-14----14-------|
A|-7-7----------------------------12-12----------------------------------|
E|-----------------------------------------------------------------------|1x

End Riff
G|------------------------------------------------------|
D|------------------------------------------------------|
A|-7---5-7----------------------------------------------|
E|---5-----5--------------------------------------------|1x

This is a fun song to play.
            
Submit corrections

↑ Back to top | Tablatures and chords for acoustic guitar and electric guitar, ukulele, drums are parodies/interpretations of the original songs. You may use it for private study, scholarship, research or language learning purposes only