Home » B » Budgie »

Budgie - Bredfan Bass

Artists:  A B C D E F G H I J K L M N O P Q R S T U V W X Y Z # 

Bredfan Bass

(ver. 1) Click to play this song!
Budgie
the bass enters on this riff
|-13---13--11-13-11---------------------------|
|------------------------13-11----------------|
|--------------------------------14----11-----|
|---------------------------------------------|

then the main riff
|--------------------------------------------------------------------|
|4-6-6-4-6-6-4-6-6-4-6-6-4-6-6-6-4-6-6-4-6-6-6-4---------------------|
|-------------------------------------------------6-4----------------|
|-----------------------------------------------------7----4---------|

and the verse, you can drop in a Gb on the first beat of each bar also
|-------------------------------------------------------------------------------|
|4-6-6-6-6-6-6-6-6-6-6-6-6-6-6-6-6-6-6-6-6-6-6-6-6-6-6-6-6-6-6-6-4---4---4--4-5-| 
|-------------------------------------------------------------------------------|
|-------------------------------------------------------------------------------|

guitar breakdown
|-----------------------------------------------------13—13-13—11-13-11-----------------|
|-----------------------------------------------------------------------13-11-----------|
|------------------------------------------------------------------------------14---11--|
|4----------4-------------4-----------4-------------------------------------------------|

then when it kicks back in
|-------------------------------------------------------------------------------------|
|-------------------------------------------------------------------------------------|
|0h2--2-2--0h2--2-2--0h2--2-2-0h2--2-2--2h4--4--2-4--4--4---4----2-----4------2--4--2-|
|-------------------------------------------------------------------------------------|

and the next breakdown riff
|--------------------------------------|-----------------------|
|*----4--------2----------------------*|-----------------------|
|*4-6---6--2-4---4-------4------------*|4--2--4--2-4-2---------|
|--------------------4-6----6--2--3--4-|---------------4-------|

and the acoustic section
|-------------------------------|-----------------|--------------------|----------------------------------|
|*6------6--6---5-4----4-4---5-*|-----------------|*7--6-------6-6-6--*|6-6-6-6-6-6-6---------------------|
|*----6-------------6----------*|-----------------|*---------6--6-6-6-*|----------------4--2--4--2-4-2----|
|-------------------------------|4----0-4---4-----|--------------------|--------------------------------4-|            
Submit corrections

↑ Back to top | Tablatures and chords for acoustic guitar and electric guitar, ukulele, drums are parodies/interpretations of the original songs. You may use it for private study, scholarship, research or language learning purposes only