Home » B » Budgie »

Budgie - Bredfan Tabs

Artists:  A B C D E F G H I J K L M N O P Q R S T U V W X Y Z # 

Bredfan Tabs

(ver. 1) Click to play this song!
Budgie
 Rating:
4/5 (4 votes)
                Budgie-Bredfan

Riff 1.:

E---------------------------------------------------------------------------|
B---------------------------------------------------------------------------|
G---------------------------------------------------------------------------|
D—5h7-7-5h7-7-5h7-7-5h7-7-7-5h7-7-5h7-7-5h7-7-7-5---------------------------|
A-------------------------------------------------5-3-----------------------|
E-----------------------------------------------------6-3-------------------|

Repat this  8 time.

Main Riff:

E----------------------------------------------------------------------------|
B----------------------------------------------------------------------------|
G----------------------------------------------------------------------------|
D—5h7-7-5h7-7-5h7-7-5h7-7-7-5h7-7-5h7-7-5h7-7-7-5---------5-5-5-5-5-7--------|
A-------------------------------------------------5-3-----5-5-5-5-5-7--------|
E-----------------------------------------------------6-3—3-3-3-3-3-5--------|

Solo:
E----------------------------------------------------------------------------|
B---------------5------------------------------------------------------------|
G---------5---7---7-5------------5--------7/9--12--11—9-7-5---7--5-----------|
D—5h7-7-7---7---------7--5h7-7-7---7-5--7--------------------------7--5p-7---|
A---------------------------------------7--------------------------------7---|
E---------------------------------------5--------------------------------5---|


E----------------------------------------------------------------------------|
B------------------------5p--------------------------------------------------|
G-7/9—12-11--9-7-5---5-7----7-----7/9--12--7/9--12--7/9-9-7/9-9-7/9-9-7/9-9--|
D------------------7----------7----------------------------------------------|
A-----------------------------7----------------------------------------------|
E-----------------------------5----------------------------------------------|

E-------------------------10--------------10—9-------------------------------|
B---------8p—8p—11-8----8-----3/9-12-9---------------------------------------|
G-7/9-12-------------10----------------10------10----10h9-7---7p-7p-7p-------|
D-----------------------------------------------------------10---------------|
A----------------------------------------------------------------------------|
E----------------------------------------------------------------------------|


E----------------------------------------------------|
B----------------------------------------------------|
G----------------------------------------------------|
D—7—5—7—5-7-5----------------------------------------|
A—7—5—7—5-7-5—   5h7-5---3h5-3---1h3-1---1h3-1-------| Repeat this part 4 time.
E—5—3—5—3-5-3--- ------7-------5-------3-------3-1-1-|

E--------------------------|
B--------------------------|
G--------------------------|
D—7—5—7—5-7-5--------------|
A—7—5—7—5-7-5--2-----------|
E—5—3—5—3-5-3—0------------|

Now play this chords:
D 5, than C  3
  7          5
  7          5
  7          5
  5          3
  5          3


I'm not shure about this part, but play:
E----------2-----------0-|
B----------3-----------1-|
G----------2-----------0-|
D----------0-----------2-|
A—0h2---------0h2------3-|
E-----2-----------2—-----|

                                                                                   
            
Submit corrections

↑ Back to top | Tablatures and chords for acoustic guitar and electric guitar, ukulele, drums are parodies/interpretations of the original songs. You may use it for private study, scholarship, research or language learning purposes only