» » »

Buddy Holly - Words Of Love Tabs

Artists:  A B C D E F G H I J K L M N O P Q R S T U V W X Y Z # 

Words Of Love Tabs

(ver. 2) Click to play this song!
Buddy Holly
 Rating:
4/5 (4 votes)

 Words Of Love lessons Tabs too difficult? Try these video lessons and learn fast
 
                

repeat throughout verse and chorus

    G              C           D        3X
----------------------0--------------------|
----3--3--0--3--0--------1-----3--0-----0--|
----0--0--0--0--------------0--2-----2--2--|
----0--0--0--0--------------0--0-----------|
-------------------3-----------------------|
-------------------------------------------|

  G                    C           D        1X
--3--3--------------------0--------------------|
--0-----0--0--3--3--0--------1-----3--0-----0--|
--0-----------------------------0--2-----2--2--|
--0-----------------------------0--0-----------|
-----------------------3-----------------------|
-----------------------------------------------|

guitar lead

----7--3-----3----------------------| X3
----8--3--3--3-----5--8--5--8---10--|
----------4-----4--7--9--7--10--11--|
------------------------------------|
------------------------------------|
------------------------------------|

--3--3--------------------0--------------------|X1
--0-----0--0--3--3--0--------1-----3--0-----0--|
--0-----------------------------0--2-----2--2--|
--0-----------------------------0--0-----------|
-----------------------3-----------------------|
-----------------------------------------------|

Hold me close and
tell me how you feel
tell me love is real
ohh ohh ohhhhhhh ohh
ohh ohh ohh ohh ohhh

Words of love you
whisper soft and true
darling I love you
ohh ohh ohhhhhhh ohh
ohh ohh ohh ohh ohhh

solo

repeat verse 1
            
Submit corrections


        Words Of Love lessons Hard to play? Try these video lessons and learn fast Words Of Love lessons
        
↑ Back to top | Tablatures and chords for acoustic guitar and electric guitar, ukulele, drums are parodies/interpretations of the original songs. You may use it for private study, scholarship, research or language learning purposes only