» » »

Buddy Holly - Brown Eyed Handsome Man Tabs

Artists:  A B C D E F G H I J K L M N O P Q R S T U V W X Y Z # 

Brown Eyed Handsome Man Tabs

(ver. 2) Click to play this song!
Buddy Holly
 Rating:
3.3/5 (26 votes)

 Brown Eyed Handsome Man lessons Tabs too difficult? Try these video lessons and learn fast
 
                 Intro
  Q=190
  E
 4/4
  Gtr I
  E  E  E  E  E  E  E  E    E  E  E  E  +E  E Q
|------------------------|------------------------|
|---12-14-15-15-15-14-12-|-12-12-14-15-(15)-------|
|---13-13-13-13-13-13-13-|-13-13-13-13-(13)-------|
|---14----------------14-|-14-14-14-14-(14)-------|
|------------------------|------------------------|
|------------------------|------------------------|
|
| Gtr II
| W                         H            E  E E E
|------------------------|------------------0-0-0-|
|------------------------|------------------0-0-0-|
|------------------------|------------------1-1-1-|
|------------------------|------------------2-2-2-|
|------------------------|------------------2-2-2-|
|------------------------|------------------------|


                                                2/4
  E  E  E  E  E  E  E  E    E  E  E  E H         W
|------------------------|---------------------|------||
|---12-14-15-15-15-14-12-|-12-12-14-15---------|------||
|---13-13-13-13-13-13-13-|-13-13-13-13---------|------||
|---14-------------------|---------------------|------||
|------------------------|---------------------|------||
|------------------------|---------------------|------||
|
| W                         H          E E E E   W
|------------------------|---------------0-0-0-|------||
|------------------------|---------------0-0-0-|------||
|------------------------|---------------1-1-1-|------||
|------------------------|---------------2-2-2-|------||
|------------------------|---------------2-2-2-|------||
|------------------------|---------------------|------||


   1st, 2nd, 4th & 5th Verses
    $
    E
   4/4
    Q  Q   Q  Q     E E E E E E Q    E E E E E E E E   E E E E E E Q
||--4--4---4--4---|-4-4---4---4-4--|-4-4-4---4-4---4-|---4-4-4-4-4-----|
||o-5--5---5--5---|-5-5---5---5-5--|-5-5-5---5-5---5-|---5-5-5-5-5-----|
||--4--4---4--4---|-4-4---4---4-4--|-4-4-4---4-4---4-|---4-4-4-4-4-----|
||----------------|----------------|-----------------|-----------------|
||o---------------|----------------|-----------------|-----------------|
||----------------|----------------|-----------------|-----------------|
|
|   Q  E E Q  E E   Q   E E E E Q    Q   E E E E Q     Q   E E Q   E E
||-----0----------|-----0-0---0-0--|-----0-0-----0---|-----0-0-----0-0-|
||o----0------0-0-|-----0-0---0-0--|-----0-0-----0---|-----0-0-----0-0-|
||-----1------1-1-|-----1-1---1-1--|-----1-1-----1---|-----1-1-----1-1-|
||------------2-2-|-------------2--|-------------2---|-----2-2-----2-2-|
||o---------------|----------------|---------2-2-----|---------2-------|
||--0----0-0------|-0--------------|-0-------0-0-----|-0-------0-------|


                    A
  E E E E E E E E   E  E  E  E E  E  E  E
|-4-4-4-4---4-4-4-|----9--9--9----9--9--9-|
|-5-5-5-5---5-5-5-|---10-10-10---10-10-10-|
|-4-4-4-4---4-4-4-|----9--9--9----9--9--9-|
|-----------------|-----------------------|
|-----------------|-----------------------|
|-----------------|-----------------------|
|
| Q   E E Q   E E   Q     E  E E  E  E  E
|-----0-0-----0-0-|-----------------------|
|-----0-0-----0-0-|-------2--2----x--2--x-|
|-----1-1-----1-1-|-------2--2----x--2--x-|
|-----2-2-----2-2-|-2-----2--2----x--2--x-|
|-2---------------|-0---------------------|
|-0---------------|-----------------------|


 1.
  B                       E                     A   B      E
   Q    E  Q    E  E  E   E E E Q   E E E   Q    Q   Q   E E
|-11---11-11---11-11-11-|---4-4-4---4-4-4-|-4----9--11-----4--|
|-12---12-12---12-12-12-|---5-5-5---5-5-5-|-5---10--12-----5--|
|-11---11-11---11-11-11-|---4-4-4---4-4-4-|-4----9--11-----4--|
|-----------------------|-----------------|-------------------|
|-----------------------|-----------------|-------------------|
|-----------------------|-----------------|-------------------|
|
|  E E  E  E E  E  E  E   Q   E E Q   Q     E E  Q   E E E E
|----2----------2-------|-----0-0-----0---|----------2-2---0--|
|----4----------4-------|-----0-0-----0---|------2---4-4---0--|
|----4----------4-------|-----1-1-----1---|------2---4-4---1--|
|----4--4-------4-------|-----2-2-----2---|------2---4-4---2--|
|--2-------2-2-----2--2-|---------2-------|---0---------------|
|-----------------------|-0-------0-------|-------------------|


                       2.
                        B
  +E  E E Q   E E E     Q   Q   E E E E
|-(4)-4-4-4---4-4-4--||-2---2---2-2---2-|
|-(5)-5-5-5---5-5-5-o||-4---4---4-4---4-|
|-(4)-4-4-4---4-4-4--||-4---4---4-4---4-|
|--------------------||-4---4---4-4---4-|
|-------------------o||-----------------|
|--------------------||-----------------|
|
| +E  E E E E E E E     E E E E E E E E
|-(0)-0-0-0-----0-0--||---------2-2---0-|
|-(0)-0-0-0-----0-0-o||---------4-4---0-|
|-(1)-1-1-1-----1-1--||---------4-4---1-|
|-(2)-2-2-2-----2-2--||-4---4---4-4-----|
|-----------2-2-----o||-2---2-----------|
|-----------0-0------||-----------------|


  E                 A       B     E
  E E E Q   Q   E   Q   Q   E E E E    E  E E E Q   Q
|---4-4-4---4-----|---------2-2---0-|--0--0-0-0-0--------||
|---5-5-5---5-----|-2---2---4-4---0-|--0--0-0-0-0--------||
|---4-4-4---4-----|-2---2---4-4---1-|--1--1-1-1-1--------||
|-----------------|-2---2---4-4---2-|--2--2-2-2-2--------||
|-----------------|-----------------|--------------------||
|-----------------|-----------------|--------------------||
|
| E E E E E E E E   E E E E E E E E   +E  E E E E E E E
|-----0-0-----0-0-|---0-0---2-2-2-0-|-(0)-0---------0-0--||
|-----0-0-----0-0-|---2-2---4-4-4-0-|-(0)-0---------0-0--||
|-1-1-1-1-1-1-1-1-|---2-2---4-4-4-1-|-(1)-1-1-------1-1--||
|-2-2-2---2-2-2-2-|---2-2---4-4-4---|-------2-2-2---2-2--||
|-2-2-----2-2-----|-----------------|-------2-2-2-2------||
|-0-0-----0-0-----|-----------------|-------0-0-0-0------||


 3rd & 6th Verses
  E
  Q  Q   Q  Q     E E E E E E Q    E E E E E E E E
|-4--4---4--4---|-4-4---4---4-4--|-4-4-4---4-4---4-|
|-5--5---5--5---|-5-5---5---5-5--|-5-5-5---5-5---5-|
|-4--4---4--4---|-4-4---4---4-4--|-4-4-4---4-4---4-|
|---------------|----------------|-----------------|
|---------------|----------------|-----------------|
|---------------|----------------|-----------------|
|
| Q  E E Q  E E   Q   E E E E Q    Q   E E E E Q
|----0----------|-----0-0---0-0--|-----0-0-----0---|
|----0------0-0-|-----0-0---0-0--|-----0-0-----0---|
|----1------1-1-|-----1-1---1-1--|-----1-1-----1---|
|-----------2-2-|-------------2--|-------------2---|
|---------------|----------------|---------2-2-----|
|-0----0-0------|-0--------------|-0-------0-0-----|


                                      A
  E E E E E E Q     E E E E E E E E   E  E  E  E E  E  E  E
|---4-4-4-4-4-----|-4-4-4-4---4-4-4-|----9--9--9----9--9--9-|
|---5-5-5-5-5-----|-5-5-5-5---5-5-5-|---10-10-10---10-10-10-|
|---4-4-4-4-4-----|-4-4-4-4---4-4-4-|----9--9--9----9--9--9-|
|-----------------|-----------------|-----------------------|
|-----------------|-----------------|-----------------------|
|-----------------|-----------------|-----------------------|
|
| Q   E E Q   E E   Q   E E Q   E E   Q     E  E E  E  E  E
|-----0-0-----0-0-|-----0-0-----0-0-|-----------------------|
|-----0-0-----0-0-|-----0-0-----0-0-|-------2--2----x--2--x-|
|-----1-1-----1-1-|-----1-1-----1-1-|-------2--2----x--2--x-|
|-----2-2-----2-2-|-----2-2-----2-2-|-2-----2--2----x--2--x-|
|---------2-------|-2---------------|-0---------------------|
|-0-------0-------|-0---------------|-----------------------|


  B                  E                 A         B           E
   Q   Q  E  E Q     E E E E E E E E    Q    Q    E  E Q     E Q   E E E Q
|-11--11----11-----|---4---4---4-4-4-|--9----9---11-11-----|---4---4-4-4-----||
|-12--12----12-----|---5---5---5-5-5-|-10---10---12-12-----|---5---5-5-5-----||
|-11--11----11-----|---4---4---4-4-4-|--9----9---11-11-----|---4---4-4-4-----||
|------------------|-----------------|---------------------|-----------------||
|------------------|-----------------|---------------------|-----------------||
|------------------|-----------------|---------------------|-----------------||
|
|  Q   Q  E  E E E   Q   E Q   E E E    E E  E E  E  E E E   Q   E E Q   Q
|------------------|-----------------|---------------------|-----------------||
|------4-----4-4-4-|-----------0-0---|-------2-2-----4-4-4-|-----0-0-----0---||
|------4-----4-4-4-|-1---1-1---1-1-1-|--2-2--2-2-----4-4-4-|-1---1-1-----1---||
|--4---4-----4-4-4-|-2---2-2---2-2-2-|--2-2--2-2--4--4-4-4-|-2---2-2-2---2---||
|--2---------------|-2---2-2---2-2-2-|--0---------2--------|-2---2-2-2---2---||
|------------------|-0---------------|---------------------|-0-------0-------||


 Guitar Solo
  E
    E  E  E  E  E  E  E  E    E E E E E E E E
|---------------------------|---------0-0-----|
|-/12-12-12-12-14\---12-12\-|---9-9-9-9-9-9-9-|
|-/13-13-13-13-14\---13-13\-|---9-9-9-9-9-9-9-|
|---------------------------|-----------------|
|---------------------------|-----------------|
|---------------------------|-----------------|
|
|   Q     Q     Q     E  E    Q   E E Q   Q
|---------------------------|-----------------|
|---------0-----------0--0--|-----0-0-----0---|
|---1-----1-----------1--1--|-----1-1-----1---|
|---2-----2-----------2--2--|-----2-2-----2---|
|---2-----2-----------2--2--|-----2-2-----2---|
|---0-----------------------|-----------------|


    E  E  E  E  E  E  E  E    E E E E E E E E
|---------------------------|-------0---0---0--|
|-/12-12-12-12-14\---12-12\-|---9-9-9-9-9-9-9--|
|-/13-13-13-13-14\---13-13\-|---9-9-9-9-9-9-9--|
|---------------------------|------------------|
|---------------------------|------------------|
|---------------------------|------------------|
|
|   Q     E  E  Q     E  E    Q   E E Q   Q
|---------------------------|------------------|
|---------0--0--------0--0--|-----0-0-----0----|
|---------1--1--------1--1--|-----1-1-----1----|
|---------2--2--------2--2--|-----2-2-----2----|
|---------2--2--------2--2--|-----2-2-----2----|
|---------------------------|------------------|


                             A
    E  E  E  E  E  E  E  E    E  E  E  Q    Q    E
|--------------------------|----------12---12---12-|
|-/12-12-12-12-16-16-16-16-|-14-14-14-14---14---14-|
|-/13-13-13-13-16-16-16-16-|-14-14-14--------------|
|--------------------------|-----------------------|
|--------------------------|-----------------------|
|--------------------------|-----------------------|
|
|   Q     E  E  Q     E  E    Q     E  E E  E E  E
|---------0--0-------------|-----------------------|
|---------0--0--------0--0-|--------2---------2--2-|
|---------1--1--------1--1-|--------2--2------2--2-|
|---------2--2--------2--2-|--------2--2----2-2--2-|
|---------2--2--------2--2-|--0--------0-0--0------|
|--------------------------|-----------------------|


  B                   E
   E  E E E E E E E   E E E E E E E E
|-11--9---7---5---4-|---4-4-4-4-4-4-4--|
|-12-10---9---7---5-|---5-5-5-5-5-5-5--|
|-------------------|------------------|
|-------------------|------------------|
|-------------------|------------------|
|-------------------|------------------|
|
|  Q    Q   Q   Q     E E E E Q   Q
|-----------2-------|-0-----------0----|
|-----------4-------|-0---0-0-0---0----|
|--4--------4-------|-1---1-1-1---1----|
|--4--------4-------|-2---2-2-2---2----|
|--2--------2-------|-----2-2----------|
|-------------------|------------------|


          D         E       D
  e e e e e E E e   E e E E e E S S S S
|-4---4---2---2-4-|---4-4-4-2---2-2-2-2-|
|-5---5---3---3-5-|---5-5-5-3---3-3-3-3-|
|-----------------|---------------------|
|-----------------|---------------------|
|-----------------|---------------------|
|-----------------|---------------------|
|
| Q   Q   E E E E   Q   Q   Q   E   E
|-----------------|-------------2-------|
|-0---0---3-3-3---|-0---0---3---3-------|
|-1---1---2-2-2---|-1---1---2---2-------|
|-2---2---0-0-0---|-2---2---0---0-------|
|-2---------------|-2-------------------|
|-----------------|---------------------|


  E       D         E       D
  e e e e e E E e   E e E E E E S S S S
|-4---4---2---2-4-|---4-4-4-2-2-2-2-2-2--|
|-5---5---3---3-5-|---5-5-5-3-3-3-3-3-3--|
|-----------------|----------------------|
|-----------------|----------------------|
|-----------------|----------------------|
|-----------------|----------------------|
|
| Q   Q   E E E E   Q   Q   Q   E   E
|-----------------|-------------2--------|
|-0---0---3-3-3---|-0---0---3---3--------|
|-1---1---2-2-2---|-1---1---2---2--------|
|-2---2---0-0-0---|-2---2---0---0--------|
|-2---------------|-2--------------------|
|-----------------|----------------------|


                                                   To Coda
  E       D         E       D             E       D
  e e e e e E E e   E e E E e E S S S S   e e e e e E E e
|-4---4---2---2-4-|---4-4-4-2---2-2-2-2-|-4---4---2---2-4--|
|-5---5---3---3-5-|---5-5-5-3---3-3-3-3-|-5---5---3---3-5--|
|-----------------|---------------------|------------------|
|-----------------|---------------------|------------------|
|-----------------|---------------------|------------------|
|-----------------|---------------------|------------------|
|
| Q   Q   E E E E   Q   Q   Q   E   E     Q   Q   E E E E
|-----------------|-------------2-------|------------------|
|-0---0---3-3-3---|-0---0---3---3-------|-0---0---3-3-3----|
|-1---1---2-2-2---|-1---1---2---2-------|-1---1---2-2-2----|
|-2---2---0-0-0---|-2---2---0---0-------|-2---2---0-0-0----|
|-2---------------|-2-------------------|-2----------------|
|-----------------|---------------------|------------------|


                         Outro
          D.S. al Coda &
  E       D                 E
  E e E E e E S S S S     E E E E E E Q
|---4-4-4-2---2-2-2-2--||---4-4-4-4--------*|
|---5-5-5-3---3-3-3-3--||---5-5-5-5--------*|
|----------------------||---4-4-4-4--------*|
|----------------------||------------------*|
|----------------------||------------------*|
|----------------------||------------------*|
|
| Q   E E Q   Q           E E E E E E Q
|-------------2--------||---0-0-0-0--------*|
|-----0-0-3---3--------||---0-0-0-0--------*|
|-1---1-1-2---2--------||---1-1-1-1--------*|
|-2---2-2-0---0--------||---2-2-2-2--------*|
|-2---2-2--------------||---2-2-2-2--------*|
|----------------------||---0-0-0-0--------*|            
Submit corrections


        Brown Eyed Handsome Man lessons Hard to play? Try these video lessons and learn fast Brown Eyed Handsome Man lessons
        
↑ Back to top | Tablatures and chords for acoustic guitar and electric guitar, ukulele, drums are parodies/interpretations of the original songs. You may use it for private study, scholarship, research or language learning purposes only