Home » B » Buck Owens »

Buck Owens - Where Does The Good Times Go Tabs

Artists:  A B C D E F G H I J K L M N O P Q R S T U V W X Y Z # 

Where Does The Good Times Go Tabs

(ver. 1) Click to play this song!
Buck Owens
WHERE DOES THE GOOD TIMES GO

=========================

/   = slide
b   = bend
pbr = pre-bend & release
h   = hammer-on

==========================

Key: B / Tune down half a step / Play: C


INTRO:

E-------------------------------------------------------8-
B-------1---------------------------------------------8---
G-0-2-4---2-4-0------------------7-9b-9pbr-7-4-5-7/9------
D---------------3-2-0----4/5-7/9--------------------------
A---------------------3-----------------------------------
E---------------------------------------------------------

SOLO:

E---8-10--12--13--12--10----8------8-8h10-8----
B-8-------13--13--13--11--6---8h10-------------
G---------12--12--12--10-----------------------
D----------------------------------------------
A----------------------------------------------
E----------------------------------------------

E---------------10-12b-12pbr-10-7-8------------
B-12-10-8-10/12--------------------------------
G-----------------------------------9-10-7-9---
D----------------------------------------------
A----------------------------------------------
E----------------------------------------------

OUTRO:

E------------------0--
B-1----------------1--
G---2-4-0----------0--
D---------3-2-0----2--
A---------------2--3--
E---------------------
            
Submit corrections

↑ Back to top | Tablatures and chords for acoustic guitar and electric guitar, ukulele, drums are parodies/interpretations of the original songs. You may use it for private study, scholarship, research or language learning purposes only