Home » B » Buck Owens »

Buck Owens - Bucks Polka Tabs

Artists:  A B C D E F G H I J K L M N O P Q R S T U V W X Y Z # 

Bucks Polka Tabs

(ver. 1) Click to play this song!
Buck Owens
Tuning: Standard

Intro:
N/C
e-7--7-7-7--7-7-7--7-7-7--7-7-7-5-------------------------------------
B----------------------------------7-4-----5-5-5--5-------------------
G---------------------------------------4-----------------------------
D---------------------------------------------------------------------
A---------------------------------------------------------------------
E---------------------------------------------------------------------
PART A:
  E                                            B7
e-7-0-0-0--4-0-0-0--7-0-0-0--4-0-0-0--7-0-0-0--4-0-4-4-5-2-2----------
B---------------------------------------------------------------------
G---------------------------------------------------------------------
D---------------------------------------------------------------------
A---------------------------------------------------------------------
E---------------------------------------------------------------------
                                                             E
e-2-2--5-2-2-2--4-2-2-2--5-2-2-2--4-2-2-2--5-2-2-2--4-2-2-2--7--4--4--
B---------------------------------------------------------------------
G---------------------------------------------------------------------
D---------------------------------------------------------------------
A---------------------------------------------------------------------
E---------------------------------------------------------------------
                                                    A
e-0--7-0-0-0--5-0-0-0--7-0-0-0--5-0-0-0--7-0-0-0--4-0-4-4-7--5--5-----
B---------------------------------------------------------------------
G---------------------------------------------------------------------
D---------------------------------------------------------------------
A---------------------------------------------------------------------
E---------------------------------------------------------------------
                           E               B7             E
e-9---9---9---9---11--9----7--7--7--7--9---7-7-7--5---------|----------
B-10--10--10--10--10--10---9--9--9--9--9------------7---4-5-|-5-5-5-5--
G-----------------------------------------------------------|----------
D-----------------------------------------------------------|----------
A-----------------------------------------------------------|----------
E-----------------------------------------------------------|----------

REPEAT 'PART A'

PART B:
  E                                                                 B7
e-3/4--4-4-4-4-4-4-5--4--4----4/7--7-7-7--9---7--7--5--5--------------
B-4/5--5-5-5-5-5-5-7--5--5----5/9--9-9-9--10--9--9--7--7--------------
G---------------------------------------------------------------------
D---------------------------------------------------------------------
A---------------------------------------------------------------------
E---------------------------------------------------------------------
        E
e-5/12--12-12-12-12-12-12--12\11--11-11-11/12--12-12-12\11--11-11-11\9---9--9--9-\7--7-7-7-
B-7/14--14-14-14-14-14-14--14\12--12-12-12/14--14-14-14\12--12-12-12\10--10-10-10\9--9-9-9-
G------------------------------------------------------------------------------------------
D------------------------------------------------------------------------------------------
A------------------------------------------------------------------------------------------
E------------------------------------------------------------------------------------------
                                   A
e-4-4-4-4-4--5--7--9---7--7---7/10--10-10-10--10/14--14-14-14\12--12-12-12--9--------------
B-5-5-5-5-5--7--9--10--9--9---9/12--12-12-12--12/15--15-15-15\14--14-14-14-----------------
G------------------------------------------------------------------------------------------
D------------------------------------------------------------------------------------------
A------------------------------------------------------------------------------------------
E------------------------------------------------------------------------------------------
                           E               B7       E
e-9---9---9---9---11--9----7--7--7--7--9---7-7-7--5-------------------
B-10--10--10--10--10--10---9--9--9--9--9------------7---4-5--5-5-5-5--
G---------------------------------------------------------------------
D---------------------------------------------------------------------
A---------------------------------------------------------------------
E---------------------------------------------------------------------
REPEAT EVERYTHING AFTER INTRO
THEN REPEAT 'PART A' ONCE (DO NOT PLAY NOTES AFTER | THIS TIME)

OUTRO:
  N/C
e------------------------------------------------------0--------------
B-5--3/5-----------------------------------------------0--------------
G---------6--4--2--1-----------------------------------1--------------
D---------------------4--2----2-2-2--------------------2--------------
A------------------------------------4--2--0-----------2--------------
E---------------------------------------------4--2--0--0--------------            
Submit corrections

↑ Back to top | Tablatures and chords for acoustic guitar and electric guitar, ukulele, drums are parodies/interpretations of the original songs. You may use it for private study, scholarship, research or language learning purposes only