» » »

Buckethead - Claymation Courtyard Tabs

Artists:  A B C D E F G H I J K L M N O P Q R S T U V W X Y Z # 

Claymation Courtyard Tabs

(ver. 1) Click to play this song!
Buckethead
 Rating:
4/5 (4 votes)

 Claymation Courtyard  lessons Tabs too difficult? Try these video lessons and learn fast
 
                Guitar I (Main) - Half-Step Down Tuning (D#A#F#C#G#D#)
Guitar II (Solo) - Half-Step Down Tuning (D#A#F#C#G#D#)

Tempo= 140
4/4


Section 1 (0:00 - 0:13)

   Guitar I
          PM PM PM                                               PM PM PM           
   E   E  E  E  E  E  E  E     E   E  E  E  E  E  Q       E   E  E  E  E  E  E  E    E   E   E  E  E   E  Q    
|---------------------------|--------------------------|---------------------------|----10---------9--------|
|---------------------7-----|-----10--------8----------|---------------------7-----|--------10--------10----|
|------------------7-----7--|---------9--------7-------|------------------7-----7--|-7----------9---------9-|
|---------------------------|--7---------5--------5----|---------------------------|------------------------|
|--7S--9--9--9--9-----------|--------------------------|--7S--9--9--9--9-----------|------------------------|
|--5S--7--7--7--7-----------|--------------------------|--5S--7--7--7--7-----------|------------------------|

          PM PM PM                                      
   E   E  E  E  E  E  E  E     E   E  E  E  E  E  Q       Q.     Q.     Q       Q.     Q.     Q     
|---------------------------|--------------------------|---------------------|---------------------|
|---------------------7-----|-----10--------8----------|----------------8----|--7------------------|
|------------------7-----7--|---------9--------7-------|---------7------7----|--7------7-----------|
|---------------------------|--7---------5--------5----|--7-------------5----|--4------7-----------|
|--7S--9--9--9--9-----------|--------------------------|---------------------|---------5------7----|
|--5S--7--7--7--7-----------|--------------------------|---------------------|----------------5----|



Section 2 (0:14 - 0:33)

   Guitar I
          PM PM                                                  PM PM                                           
   E   E  E  E  E  E  E  E     E   E  E  E  E  E  Q       E   E  E  E  E  E  E  E    E   E   E  E  E   E  Q     
|---------------------------|--------------------------|---------------------------|----10---------9--------|
|---------------------7-----|-----10--------8----------|---------------------7-----|--------10--------10----|
|---------------7--------7--|---------9--------7-------|---------------7--------7--|-7----------9---------9-|
|------------------9--------|--7---------5--------5----|------------------9--------|------------------------|
|--7S--9--9--9--------------|--------------------------|--7S--9--9--9--------------|------------------------|
|--5S--7--7--7--------------|--------------------------|--5S--7--7--7--------------|------------------------|


          PM PM                                                                       
   E   E  E  E  E  E  E  E     E   E  E  E  E  E  Q        Q     Q     Q     E    E      W                
|---------------------------|--------------------------|-----------------------------|----------|
|---------------------7-----|-----10--------8----------|-----------------------------|----------|
|---------------7--------7--|---------9--------7-------|-----------------------------|----------|
|------------------9--------|--7---------5--------5----|---9-----9-----9-----9s--11--|--11------|
|--7S--9--9--9--------------|--------------------------|--10----10----10----10s--12--|--12------|
|--5S--7--7--7--------------|--------------------------|-----------------------------|----------|


  E  E  E  E  Q    Q       E  E  E  E   E  E  E  E      E   E   E   E   Q     Q       E   E  E  E   Q     Q      
|-----------------------|---------------------------|------------------------------|------------------------|
|-----------------------|---------------------------|------------------------------|------------------------|
|-----------------------|---------------------------|------------------------------|------------------------|
|-----------------------|---------------------------|------------------------------|---------------14----14-|
|----9--------7----9----|-----9---------------------|------12----------12----------|-----12--------12----12-|
|-7-----7--7------------|--7-----7--7--10--7--9--7--|--10------10--10--------10----|--9------9--9-----------|



Section 3 (0:34 - 1:08)

|Repeat line 2 times
|        PM PM                                                  PM PM     
| E   E  E  E  E  E  E  E     E   E  E  E  E  E  Q       E   E  E  E  E  E  E  E     E   E   E  E  E   E  Q     
|--------------------------|--------------------------|---------------------------|-----10---------9--------|
|--------------------7-----|-----10--------8----------|---------------------7-----|---------10--------10----|
|--------------7--------7--|---------9--------7-------|---------------7--------7--|--7----------9---------9-|
|-----------------9--------|--7---------5--------5----|------------------9--------|-------------------------|
|-7S--9--9--9--------------|--------------------------|--7S--9--9--9--------------|-------------------------|
|-5S--7--7--7--------------|--------------------------|--5S--7--7--7--------------|-------------------------|


|Repeat this line 3 times
| E  E  E  E  Q    Q      E  E  E  E   E  E  E  E      E   E   E   E   Q     Q       E   E  E   E   Q     Q     
|-----------------------|--------------------------|------------------------------|-------------------------|
|-----------------------|--------------------------|------------------------------|-------------------------|
|-----------------------|--------------------------|------------------------------|-------------------------|
|-----------------------|--------------------------|------------------------------|----------------14-------|
|----9--------7----9----|----9---------------------|------12----------12----------|-----12-----12--------12-|
|-7-----7--7------------|-7-----7--7--10--7--9--7--|--10------10--10--------10----|--9------9---------------|



Section 4 (1:09 - 1:35)

|Repeat line 4 times
|         PM PM                                                 PM PM     
|  E   E  E  E  E  E  E  E    E   E  E  E  E  E  Q       E   E  E  E  E  E  E  E     E   E   E  E  E   E  Q     
|--------------------------|--------------------------|---------------------------|-----10---------9--------|
|--------------------7-----|-----10--------8----------|---------------------7-----|---------10--------10----|
|--------------7--------7--|---------9--------7-------|---------------7--------7--|--7----------9---------9-|
|-----------------9--------|--7---------5--------5----|------------------9--------|-------------------------|
|-7S--9--9--9--------------|--------------------------|--7S--9--9--9--------------|-------------------------|
|-5S--7--7--7--------------|--------------------------|--5S--7--7--7--------------|-------------------------|



Solo 1 (1:36 - 2:17)

| Guitar I 
|         PM PM PM PM PM PM            PM PM PM PM PM PM             PM PM PM PM PM PM    
|  E   E  E  E  E  E  E  S  S   E   E  E  E  E  E  E  S  S    E   E  E  E  E  E  E  S  S    Q.     E  H          
|----------------------------|-----------------------------|-----------------------------|------------------|
|----------------------------|-----------------------------|-----------------------------|------------------|
|----------------------------|-----------------------------|-----------------------------|------------------|
|----------------------------|-----------------------------|-----------------------------|------------------|
|-7S--9--9--9--9--9--9--9--x-|--7S--9--9--9--9--9--9--9--x-|--7S--9--9--9--9--9--9--9--x-|--5------7--L-----|
|-5S--7--7--7--7--7--7--7--x-|--5S--7--7--7--7--7--7--7--x-|--5S--7--7--7--7--7--7--7--x-|--3------5--L-----|
|
| Guitar II
|   Q.     Q.      Q       Q.     Q.      Q       Q.     Q.      Q       Q.     Q.     Q    
|---------------------|----------------------|----------------------|---------------------|
|---------------------|----------------------|----------------------|---------------------|
|---------------------|----------------------|----------------------|---------------------|
|---------------------|----------------------|----------------------|---------------------|
|---------------------|--7------9------10----|--9------7------------|--7------9------9----|
|-7------9------10----|----------------------|----------------10----|---------------------|


| Guitar I 
|         PM PM PM PM PM PM            PM PM PM PM PM PM             PM PM PM PM PM PM    
|  E   E  E  E  E  E  E  S  S   E   E  E  E  E  E  E  S  S    E   E  E  E  E  E  E  S  S    Q.     E  H          
|----------------------------|-----------------------------|-----------------------------|------------------|
|----------------------------|-----------------------------|-----------------------------|------------------|
|----------------------------|-----------------------------|-----------------------------|------------------|
|----------------------------|-----------------------------|-----------------------------|------------------|
|-7S--9--9--9--9--9--9--9--x-|--7S--9--9--9--9--9--9--9--x-|--7S--9--9--9--9--9--9--9--x-|--5------7--L-----|
|-5S--7--7--7--7--7--7--7--x-|--5S--7--7--7--7--7--7--7--x-|--5S--7--7--7--7--7--7--7--x-|--3------5--L-----|
|
| Guitar II
|  Q.     Q.      Q       Q.      Q.     Q       H.            Q        W                
|----------------------|----------------------|----------------------|-------------------|
|----------------------|----------------------|----------------------|-------------------|
|----------------------|----------------------|----------------------|-------------------|
|----------------------|---------11------7----|--7-------------------|-------------------|
|----------------------|--9-------------------|---------------24\----|--L----------------|
|--7------9------10----|----------------------|---------------24\----|--L----------------|


| Guitar I 
|  W                   H        H           W                   Q.     Q    E  E  E  
|-------------------|--------------------|-------------------|-----------------------|
|-------------------|--------------------|-------------------|-----------------------|
|-------------------|--------------------|-------------------|-----------------------|
|-------------------|-----------7--------|-------------------|---------4----5--4-----|
|--9----------------|--7--------5--------|--5----------------|--5-----------------5--|
|--7----------------|--5-----------------|--3----------------|--3--------------------|
|
| Guitar II
|                                                                   |--3--|  |---3--| 
|   W                   W                   H        Q     E  E     Q     E  E  E   H          Q       
|--------------------|--L----------------|-----------------------|-----------7-----------------7-----|
|--7-----------------|--L----------------|--L--------7-----------|--------7-----7--10b--------10b----|
|--9b----------------|-------------------|--L--------9b----7-----|--9b-------------------------------|
|--------------------|-------------------|--------------------9--|-----------------------------------|
|--------------------|-------------------|-----------------------|-----------------------------------|
|--------------------|-------------------|-----------------------|-----------------------------------|


| Guitar I 
|  W                   H        H           W                   W                
|-------------------|--------------------|-------------------|-------------------|
|-------------------|--------------------|-------------------|-------------------|
|-------------------|--------------------|-------------------|-------------------|
|-------------------|-----------7--------|-------------------|-------------------|
|--9----------------|--7--------5--------|--5----------------|--5----------------|
|--7----------------|--5-----------------|--3----------------|--3----------------|
|
| Guitar II
|  Q      Q      Q      Q     Q      Q      Q      Q     Q      Q      Q      Q      Q      H          Q       
|--7------7------7------7--|--7------7------7------7--|--7------7------7------7--|---7---------------------|
|-10b----10b----10b----10b-|-10b----10b----10b----10b-|-10b----10b----10b----10b-|--10b---------------17b--|
|--------------------------|--------------------------|--------------------------|-------------------------|
|--------------------------|--------------------------|--------------------------|-------------------------|
|--------------------------|--------------------------|--------------------------|---------24\-------------|
|--------------------------|--------------------------|--------------------------|---------24\-------------|


| Guitar I 
|  W                   H        H           W                   W                
|-------------------|--------------------|-------------------|-------------------|
|-------------------|--------------------|-------------------|-------------------|
|-------------------|--------------------|-------------------|-------------------|
|-------------------|-----------7--------|-------------------|-------------------|
|--9----------------|--7--------5--------|--5----------------|--5----------------|
|--7----------------|--5-----------------|--3----------------|--3----------------|
|
| Guitar II
|                            |------3------|      |------3------|  
|    H          H            Q      Q      Q      Q      Q      Q         W             W                  
|--14---------14---------|--14-----14-----14-----14-----14-----14-----|--14---------|--14--------|
|--17b--------17b--------|--17b----17b----17b----17b----17b----17b----|--17b--------|--17b-------|
|------------------------|--------------------------------------------|-------------|------------|
|------------------------|--------------------------------------------|-------------|------------|
|------------------------|--------------------------------------------|-------------|------------|
|------------------------|--------------------------------------------|-------------|------------|


| Guitar I 
|  W                   H        H           W                   W                
|-------------------|--------------------|-------------------|-------------------|
|-------------------|--------------------|-------------------|-------------------|
|-------------------|--------------------|-------------------|-------------------|
|-------------------|-----------7--------|-------------------|-------------------|
|--9----------------|--7--------5--------|--5----------------|--5----------------|
|--7----------------|--5-----------------|--3----------------|--3----------------|
|
| Guitar II
|   Q       H          Q         H          Q        Q       Q     Q        H          Q       H.             
|--14-----(17)---------L----|--(17)---------L------(17)--|---L-----L------(17)-----|---L-------------|
|--17b------L---------17pb--|----L---------17pb------L---|---L----17pb------L------|--17pb-----------|
|---------------------------|----------------------------|-------------------------|-----------------|
|---------------------------|----------------------------|-------------------------|-----------------|
|---------------------------|----------------------------|-------------------------|----------24\----|
|---------------------------|----------------------------|-------------------------|----------24\----|



Section 5 (2:18 - 2:44)

|Repeat line 4 times
|        PM PM                                                  PM PM     
| E   E  E  E  E  E  E  E     E   E  E  E  E  E  Q       E   E  E  E  E  E  E  E     E   E   E  E  E   E  Q     
|--------------------------|--------------------------|---------------------------|-----10---------9--------|
|--------------------7-----|-----10--------8----------|---------------------7-----|---------10--------10----|
|--------------7--------7--|---------9--------7-------|---------------7--------7--|--7----------9---------9-|
|-----------------9--------|--7---------5--------5----|------------------9--------|-------------------------|
|-7S--9--9--9--------------|--------------------------|--7S--9--9--9--------------|-------------------------|
|-5S--7--7--7--------------|--------------------------|--5S--7--7--7--------------|-------------------------|



Section 6 (2:45 - 3:11)

|Repeat 4 times
|  E  S S  S S S  S S S  S S S  S S S     S S S   S S  S  S S S  S E  Q     
|--------------------------------------|-----------------------------------|
|--------------------------------------|-----------------------------------|
|--------------------------------------|-----------------------------------|
|--------------------------------------|-----------------------------------|
|-------9p-5---5h-7---7p-5---5h-9---9h-|--5---5h-10---10p-5---5h-9----9----|
|--7--7------7------7------7------7----|----7-------7-------7------7--7----|


   E  S S  S S S  S S S  S S S  S S S     S S S  S S S  S S E  E  Q     
|--------------------------------------|-------------------------------|
|--------------------------------------|-------------------------------|
|--------------------------------------|-------------------------------|
|--------------------------------------|-------------------------------|
|-------9p-5---5h-7---7p-5---5h-9---9h-|--5---5h-7---7p-5---5-----7----|
|--7--7------7------7------7------7----|----7------7------7----5--5----|



Solo 2 (3:12 - 3:39)

|Repeat next 4 bars twice
| Guitar I 
|  W                   W                                
|-------------------|-------------------|
|-------------------|-------------------|
|-------------------|-------------------|
|-------------------|-------------------|
|--9----------------|--7----------------|
|--7----------------|--5----------------|
|
| Guitar II
|  PM        PM        PM        PM       PM       PM        PM        PM        PM     PM      
|  E   S   S S   S   S S   S   S S   S  S S  E     E   S   S S   S   S S   S   S S   E  S   E   
|-----------------------------------------------|----------------------------------------------|
|--0--12p-10-0--10h-12-0--12p-10-0--10p-7-0--7--|--0--12p-10-0--10h-12-0--14h-15-0--14--0--10--|
|-----------------------------------------------|----------------------------------------------|
|-----------------------------------------------|----------------------------------------------|
|-----------------------------------------------|----------------------------------------------|
|-----------------------------------------------|----------------------------------------------|


| Guitar I 
|  W                   W                            
|-------------------|-------------------|
|-------------------|-------------------|
|-------------------|-------------------|
|-------------------|-------------------|
|--5----------------|--7----------------|
|--3----------------|--5----------------|
|
| Guitar II
|  PM        PM        PM        PM        PM           PM        PM        PM        PM        PM      
|  E   S   S S   S   S S   S   S S   S   S S   S   S    S   S   S S   S   S S   S   S S   S   S S   E.   
|----------------------------------------------------|--------------------------------------------------|
|--0--12p-10-0--10h-12-0--14h-15-0--15h-17-0--17p-15-|--0--15p-14-0--14p-12-0--12p-10-0--10h-12-0--12---|
|----------------------------------------------------|--------------------------------------------------|
|----------------------------------------------------|--------------------------------------------------|
|----------------------------------------------------|--------------------------------------------------|
|----------------------------------------------------|--------------------------------------------------|


|Repeat the next 4 bars twice
| Guitar I 
|  W                   W                                
|-------------------|-------------------|
|-------------------|-------------------|
|-------------------|-------------------|
|-------------------|-------------------|
|--9----------------|--7----------------|
|--7----------------|--5----------------|
|
| Guitar II
|  PM        PM        PM        PM     PM        PM        PM        PM        PM     PM      
|  E   S   S S   S   S S   S   S S   E  S   E     E   S   S S   S   S S   S   S S   E  S   E    
|-----17p-15----15p-14----14h-15----14---------|-----17p-15----15p-14----14h-15----14---------|
|--0---------0---------0---------0------0--15--|--0---------0---------0---------0------0--15--|
|----------------------------------------------|----------------------------------------------|
|----------------------------------------------|----------------------------------------------|
|----------------------------------------------|----------------------------------------------|
|----------------------------------------------|----------------------------------------------|


| Guitar I 
|  W                   W                            
|-------------------|-------------------|
|-------------------|-------------------|
|-------------------|-------------------|
|-------------------|-------------------|
|--5----------------|--7----------------|
|--3----------------|--5----------------|
|
| Guitar II
|  PM        PM        PM        PM     PM           PM        PM        PM        PM        PM          
|  E   S   S S   S   S S   S   S S   E  S   S   S    S   S   S S   S   S S   S   S S   S   S S   S   E   
|-----17p-15----15p-14----14h-15----14------------|-----------------------------------------------------|
|--0---------0---------0---------0------0--15p-14-|--0--14h-15-0--15p-14-0--14p-12-0--12p-10-0--10h-12--|
|-------------------------------------------------|-----------------------------------------------------|
|-------------------------------------------------|-----------------------------------------------------|
|-------------------------------------------------|-----------------------------------------------------|
|-------------------------------------------------|-----------------------------------------------------|



Section 7 (3:40 - 3:45)

   W                   W                   Q    Q    Q    Q       Q    H.            
|-------------------|-------------------|----------------------|--------------------|
|-------------------|-------------------|----------------------|--------------------|
|-------------------|-------------------|----------------------|--------------------|
|-------------------|-------------------|------------7----7----|--L-----------------|
|--9----------------|--7----------------|--5----7----5----4----|--L----7------------|
|--7----------------|--5----------------|--3----5--------------|-------5------------|



(3:46 - 4:40)
Repeat Section 6 and Solo 2 as previously described



Section 8 (4:41 - 5:02)

|Repeat the next 4 bars twice
|  E  S  S S S  S S S  S S S  S S S  S    S S   S S  S  S S S  E  E  Q     
|--------------------------------------|----------------------------------|
|--------------------------------------|----------------------------------|
|--------------------------------------|----------------------------------|
|--------------------------------------|----------------------------------|
|-----9p-5---5h-7---7p-5---5h-9---9p-5-|----5h-10---10p-5---5h-9-----9----|
|--7-------7------7------7------7------|--7-------7-------7-------7--7----|


   E  S  S S S  S S S  S S S  S S S  S    S S  S S S  S E  E  E  Q     
|--------------------------------------|------------------------------|
|--------------------------------------|------------------------------|
|--------------------------------------|------------------------------|
|--------------------------------------|------------------------------|
|-----9p-5---5h-7---7p-5---5h-9---9p-5-|----5h-7---7p-5----5-----7----|
|--7-------7------7------7------7------|--7------7------7-----5--5----|  


  W                  
|---------||
|---------||
|---------||
|---------||
|--9------||
|--7------||
            
Submit corrections


        Claymation Courtyard  lessons Hard to play? Try these video lessons and learn fast Claymation Courtyard  lessons
        
↑ Back to top | Tablatures and chords for acoustic guitar and electric guitar, ukulele, drums are parodies/interpretations of the original songs. You may use it for private study, scholarship, research or language learning purposes only