» » »

Buckethead - Celery Tabs

Artists:  A B C D E F G H I J K L M N O P Q R S T U V W X Y Z # 

Celery Tabs

(ver. 1) Click to play this song!
Buckethead
 Rating:
1.8/5 (29 votes)

 Celery  lessons Tabs too difficult? Try these video lessons and learn fast
 
                INTRO:

e|---------------------------------------------------------------------------|
B|---------------------------------------------------------------------------|
G|---------------------------------------------------------------------------|
D|--------------4-------------------------4----------------------------------|
A|-6----6----2--2---6------44-/6-6-----2--2----------------------------------|
E|-4----4----0------4------22~/4-4-----0-------------------------------------|

e|------------------------------------------------9h11~9~--7h9p7\6-----------|
B|-----/4---------/4----7h9~7---------------------------------------7--------|
G|-4-6--------4-6---------------8-6-4~-6-/8-8~-------------------------------|
D|-------------------6-------------------------6-----------------------------|
A|-----------------------~---------------------------------------------------|
E|---------------------------------------------------------------------------|

e|--------------------------------------------------------------9-7----------|
B|------------------------------------------------------7-7~-5------9-7-9----|
G|-4-4h6-4h6p4\3-3----------------------------------3-4----------------------|
D|----------------4------4----6-4-----------------4--------------------------|
A|-----------------4/6-----6------4--2h4h6------2----------------------------|
E|-----------------------------------------4~~-------------------------------|



PRE-SOLO:  (5:21)

e|---------------------------------------------------------------------------|
B|---------------------------------------------------------------------------|
G|---------------------------------------------------------------------------|
D|---------------------------------------------------------------------------|
A|--11~~-9~~-7~~-9~~-11~~-9~~-7~~-9~~----------------------------------------|
E|---------------------------------------------------------------------------|


SOLO:   (5:41)

e|---------------------------------------------------------------------------|
B|----------------------------------------------------------------9/11-11~~--|
G|------------------------------------------------------11-9\8-8-------------|
D|--------------------------------------------9~~-11h13----------------------|
A|---------------------------------------------------------------------------|
E|---------------------------------------------------------------------------|

e|---------------------------------------------------------------------------|
B|-/12-12~-/14-14-14-14-14/16-16-16h19--21-21-----------19-21----------------|
G|--------------------------------------------18-20-20--------16-15--15h16---|
D|---------------------------------------------------------------------------|
A|---------------------------------------------------------------------------|
E|---------------------------------------------------------------------------|

e|---------------------------------------------------------------------------|
B|------------------------------------------------------11h12p11--11h12------|
G|-15-13-11h13~11-------------------11h13-13fb~~-13br13-----------------11---|
D|----------------13p11-9/11h13~~-13-----------------------------------------|
A|---------------------------------------------------------------------------|
E|---------------------------------------------------------------------------|

e|---------------------------------------16-----------16-----------16--------|
B|------------------------------16-16-19----14-16--19--------14-19----14-16--|
G|------------------------------------------------------16~------------------|
D|-13p11-11h13--------------13~~---------------------------------------------|
A|-------------11-11~/13h14--------------------------------------------------|
E|---------------------------------------------------------------------------|


e|----16--------------------16-18------19fb--18------------------------------|
B|-19--------------------16---------16----------19--19h21p19-----------------|
G|-------16~--15-13-------------------------------------------16h18p16\15----|
D|---------------------------------------------------------------------------|
A|---------------------------------------------------------------------------|
E|---------------------------------------------------------------------------|


e|----------------------------------------12-11--------14-12-11----16-18-----|
B|-------------------------------------14-------12--------------12-----------|
G|-13-11h13--11---------------------11-------------13------------------------|
D|--------------11-9-11-13----13-14------------------------------------------|
A|-------------------------11------------------------------------------------|
E|---------------------------------------------------------------------------|


e|-18hb-------20hb-19~~--19-19-18-18-18-18-18-18-18~~---16-18-19-21-23-------|
B|------19-16---------------------------------------16~----------------23-23-|
G|---------------------------------------------------------------------------|
D|---------------------------------------------------------------------------|
A|---------------------------------------------------------------------------|
E|---------------------------------------------------------------------------|


e|-------------19-23~-hb23--21h23p21-19-18-------21h23~-21h23p21-19-18-------|
B|-23b-21~--21-----------------------------19--------------------------19----|
G|--------------------------------------------18--------------------------18-|
D|---------------------------------------------------------------------------|
A|---------------------------------------------------------------------------|
E|---------------------------------------------------------------------------|


e|--23-21-19-18----------------------------------------------16----18----19--|
B|--------------19----19-19h21-19----------------------19-16----16----16-----|
G|-----------------18-------------18-16----16p15h16--------------------------|
D|--------------------------------------18----------18-----------------------|
A|---------------------------------------------------------------------------|
E|---------------------------------------------------------------------------|


e|----18b+r------------------------------------------------------------------|
B|-16-------19-----------19--------------15b15-12----------------------------|
G|-------------16-18fb~~----18fb18-16-18----------13-------------------------|
D|---------------------------------------------------------------------------|
A|---------------------------------------------------------------------------|
E|---------------------------------------------------------------------------|            
Submit corrections


        Celery  lessons Hard to play? Try these video lessons and learn fast Celery  lessons
        
↑ Back to top | Tablatures and chords for acoustic guitar and electric guitar, ukulele, drums are parodies/interpretations of the original songs. You may use it for private study, scholarship, research or language learning purposes only