» » »

Buckethead - Can I Have A Ride Tabs

Artists:  A B C D E F G H I J K L M N O P Q R S T U V W X Y Z # 

Can I Have A Ride Tabs

(ver. 1) Click to play this song!
Buckethead
 Rating:
4/5 (4 votes)

 Can I Have A Ride lessons Tabs too difficult? Try these video lessons and learn fast
 
                Can I Have a Ride by the Deli Creeps


if you dunno the song then listen it for the timing...enjoy

Intro
e-----------------------------|
b-----------------------------|
g-----------------------------|X 2
d-3----5-----8~----5---2------|
a-3----5-----8~----5---2------|
E-1----3-----6~----3---1------|

Verse
e---------------------------------------------|
b---------------------------------------------|
G---------------------------------------------|
D-5--3--5--3--5-5--3--------------------------|
A-5--3--5--3--5-5--3--------------------------|
E-3--1--3--1--3-3--1--<4>~--<3>~-<1>----------|

Weird bit
e--------------------------------------------------------------|
b--------------------------------------------------------------|
G--------------------------------------------------------------|
D-5--3--5--3--5-5--3-------------------------2-5-8~--5--3------|
A-5--3--5--3--5-5--3-------------------------2-5-8~--5--3------|
E-3--1--3--1--3-3--1--<4>~--<3>~-<1>----1-3-6~--3--1-----------|

<4> <3> <1> = Pinched Harmonics
            
Submit corrections


        Can I Have A Ride lessons Hard to play? Try these video lessons and learn fast Can I Have A Ride lessons
        
↑ Back to top | Tablatures and chords for acoustic guitar and electric guitar, ukulele, drums are parodies/interpretations of the original songs. You may use it for private study, scholarship, research or language learning purposes only