» » »

Buckethead - Binge And Grab Tabs

Artists:  A B C D E F G H I J K L M N O P Q R S T U V W X Y Z # 

Binge And Grab Tabs

(ver. 1) Click to play this song!
Buckethead
 Rating:
4.3/5 (26 votes)

 Binge And Grab lessons Tabs too difficult? Try these video lessons and learn fast
 
                [Intro]
      PM---------|              PM------------------|    PM-------------------------------------------|
e|----|-------------------------|------------------------|------------------------|------------0---------9--|
B|----|-------------------------|------------------------|------------------------|------4--------4------9--|
G|-4--|------4-----4h6~~~~4-----|------------------------|------------------------|6--------6--------6--10--|
D|-6--|---------6------------4--|------4-----7--6--4-----|------9-----6-----7-----|---7-----------------11--|
A|-7--|---7------------------6--|---6-----6-----------7--|---7-----7-----7-----7--|---------------------11--|
E|-0--|----------------------7--|---------------------5--|------------------------|----------------------9--|
   .                         .                        .                                                  .
 (Song starts on the 'and' of 4)                          LR----------------------------------|
e|--------9------9-----9--7--|------7-----7-----7--5--|(5)-----------0----------|------------0-----------|
B|--------9------9-----9--7--|------7-----7-----7--5--|(5)-----4--------4-------|------4-----------------|
G|-------10-----11----10--8--|------8-----9-----8--6--|(6)--------6--------6----|---------6--------------|
D|-------11------9----11--9--|------9-----9-----9--7--|(7)--7-----------------7-|---7--------------------|x2
A|-------11-----11----11--9--|------9-----9-----9--7--|(7)----------------------|------------------------|
E|---9----9--9---9-----9--7--|---7--7--7--7-----7--5--|(5)----------------------|---------------4--2--0--|
                          .                                                                           .
       (After the open E in the last measure of the intro, replay the intro starting at measure 2)

[Verse]
 PM---------|              PM------------------|    PM-----------------------------------|LR-----|
e|-------------------------|------------------------|------------------------|------------0---------9--|
B|-------------------------|------------------------|------------------------|------4--------4------9--|
G|------4-----4h6~~~~4-----|------------------------|------------------------|6--------6--------6--10--|
D|---------6---------------|------4-----7--6--4-----|------9-----6-----7-----|---7-----------------11--|
A|---7---------------------|---6-----6--------------|---7-----7-----7-----7--|---------------------11--|
E|----------------------7--|---------------------5~~|------------------------|----------------------9--|
                        .                                                                           .
                                                          LR----------------------------------|
e|--------9------9-----9--7--|------7-----7-----7--5--|(5)-----------0----------|------------0-----------|
B|--------9------9-----9--7--|------7-----7-----7--5--|(5)-----4--------4-------|------4-----------------|
G|-------10-----11----10--8--|------8-----9-----8--6--|(6)--------6--------6----|---------6--------------|
D|-------11------9----11--9--|------9-----9-----9--7--|(7)--7-----------------7-|---7--------------------|x3
A|-------11-----11----11--9--|------9-----9-----9--7--|(7)----------------------|------------------------|
E|---9----9--9---9-----9--7--|---7--7--7--7-----7--5--|(5)----------------------|---------------4--2--0--|
                          .                                                                           .
                                     (The last time through playing this before it switches to the chorus,
                            replace the last three notes with a pick slide, then a finger slide down the neck)

[Chorus]
                 PM--|     PM    PM                                PM---|LR----------------------------|
e|------------------------|------------------------|------------------------|--------------------------|
B|------------------------|------------------------|------------------------|--------------------------|
G|------------------------|------------------------|------------------------|--------------------------|
D|4--6--6--6--6--------4--|---6--------------4-----|4--6--6--6--6-----------|-----1--2-----------------|
A|4--4--4--4--4--4--4--4--|4--4--4--4~~~~~~--2-----|4--4--4--4--4--4--4--2--|(2)--------0--------------|
E|------------------------|------------------------|------------------------|--------------------------|
                                             .
                 PM--|     PM    PM                                PM---|LR-----------------------------
e|------------------------|------------------------|------------------------|-----------------0--------|
B|------------------------|------------------------|------------------------|--------------------4-----|
G|------------------------|------------------------|------------------------|-----------------------4--|
D|4--6--6--6--6--------4--|---6--------------4-----|4--6--6--6--6-----------|-----1--2-----------------|
A|4--4--4--4--4--4--4--4--|4--4--4--4~~~~~~--2-----|4--4--4--4--4--4--4--2--|(2)--------0--------------|
E|------------------------|------------------------|------------------------|--------------------------|
                                             .
  --------------------|   LR--------------------------------------------|   LR------------------------
e|0-----------------------|---------------0--------|0--------0--------------|---------------0--------|
B|---4--------------------|------------------4-----|---4--------------------|------------------4-----|
G|------4-----------------|---------------------4--|------4-----------------|---------------------4--|
D|---------2--------------|---1--2-----------------|------------------------|---1--2-----------------|
A|------------------------|2--------0--------------|------------------------|2--------0--------------|
E|------------------------|------------------------|------------------------|------------------------|

  -------------------|
e|0-----------------------|------------|
B|---4--------------------|------------|
G|------4-----------------|------------| (The last measure is in 2/4)
D|---------2--------------|------------|
A|------------------------|------------|
E|------------------------|---4--2--0--|

[Verse]
 PM---------|              PM------------------|    PM-----------------------------------|LR-----|
e|-------------------------|------------------------|------------------------|------------0---------9--|
B|-------------------------|------------------------|------------------------|------4--------4------9--|
G|------4-----4h6~~~~4-----|------------------------|------------------------|6--------6--------6--10--|
D|---------6---------------|------4-----7--6--4-----|------9-----6-----7-----|---7-----------------11--|
A|---7---------------------|---6-----6--------------|---7-----7-----7-----7--|---------------------11--|
E|----------------------7--|---------------------5~~|------------------------|----------------------9--|
                        .                                                                           .
                                                          LR----------------------------------|
e|--------9------9-----9--7--|------7-----7-----7--5--|(5)-----------0----------|------------0-----------|
B|--------9------9-----9--7--|------7-----7-----7--5--|(5)-----4--------4-------|------4-----------------|
G|-------10-----11----10--8--|------8-----9-----8--6--|(6)--------6--------6----|---------6--------------|
D|-------11------9----11--9--|------9-----9-----9--7--|(7)--7-----------------7-|---7--------------------|x3
A|-------11-----11----11--9--|------9-----9-----9--7--|(7)----------------------|------------------------|
E|---9----9--9---9-----9--7--|---7--7--7--7-----7--5--|(5)----------------------|---------------4--2--0--|
                          .                                                                           .
                                     (The last time through playing this before it switches to the chorus,
                            replace the last three notes with a pick slide, then a finger slide down the neck)

[Chorus]
                 PM--|     PM    PM                                PM---|LR----------------------------|
e|------------------------|------------------------|------------------------|--------------------------|
B|------------------------|------------------------|------------------------|--------------------------|
G|------------------------|------------------------|------------------------|--------------------------|
D|4--6--6--6--6--------4--|---6--------------4-----|4--6--6--6--6-----------|-----1--2-----------------|
A|4--4--4--4--4--4--4--4--|4--4--4--4~~~~~~--2-----|4--4--4--4--4--4--4--2--|(2)--------0--------------|
E|------------------------|------------------------|------------------------|--------------------------|
                                             .
                 PM--|     PM    PM                                PM---|LR-----------------------------
e|------------------------|------------------------|------------------------|-----------------0--------|
B|------------------------|------------------------|------------------------|--------------------4-----|
G|------------------------|------------------------|------------------------|-----------------------4--|
D|4--6--6--6--6--------4--|---6--------------4-----|4--6--6--6--6-----------|-----1--2-----------------|
A|4--4--4--4--4--4--4--4--|4--4--4--4~~~~~~--2-----|4--4--4--4--4--4--4--2--|(2)--------0--------------|
E|------------------------|------------------------|------------------------|--------------------------|
                                             .
  --------------------|   LR--------------------------------------------|   LR------------------------
e|0-----------------------|---------------0--------|0-----------------------|---------------0--------|
B|---4--------------------|------------------4-----|---4--------------------|------------------4-----|
G|------4-----------------|---------------------4--|------4-----------------|---------------------4--|
D|---------2--------------|---1--2-----------------|---------2--------------|---1--2-----------------|
A|------------------------|2--------0--------------|------------------------|2--------0--------------|
E|------------------------|------------------------|------------------------|------------------------|

  -------|
e|0-----------------------|--------------|
B|---4--------------------|--------------|
G|------4-----------------|--------------| (The last measure is in 2/4)
D|---------4--------------|(4)-----------|
A|---------2--------------|(2)-----------|
E|------------------------|--------------|

[Bridge]
       PM---------------|       PM---------------------|       PM--------------------|
e|------------------------------|------------------------------|------------------------------|--------------|
B|------------------------------|------------------------------|------------------------------|--------------|
G|-----c1----------c1-----------|-----c1----------c1-----4--3--|-----c1----------c1-----------|--------------|
D|--------2p1---------2p1-2--4--|--------2p1---------2p1-2--1--|--------2p1---------2p1-2--4--|2------4------|
A|4p0h4------h4p0h4-------0--2--|4p0h4------h4p0h4-------------|4p0h4------h4p0h4-------0--2--|0------2------|
E|------------------------------|------------------------------|------------------------------|--------------|

 PM---------------------|       PM---------------------|       PM---------------------|
e|------------------------------|------------------------------|------------------------------|--------------|
B|------------------------------|------------------------------|------------------------------|--------------|
G|-----c1----------c1-----------|-----c1----------c1-----4--3--|-----c1----------c1-----------|--------------|
D|--------2p1---------2p1-2--4--|--------2p1---------2p1-2--1--|--------2p1---------2p1-2--4--|2-------------|
A|4p0h4------h4p0h4-------0--2--|4p0h4------h4p0h4-------------|4p0h4------h4p0h4-------0--2--|0-------------|
E|------------------------------|------------------------------|------------------------------|--------------|

e|-------------------------|
B|-------------------------|
G|-------------------------|
D|4------------------------|
A|2------------------------|
E|---------------2br----0--|
                       
[Solo]

e|----7-c9----c7-----------|---------------------|------------------------------12--|---11br-----------------|
B|------------------c9-----c7--9-------------10--(10)-10--10/(12)--12\(10)--10------|----------12----12b-12--|
G|----------9-----9-----9--|---------9~~~~~---9--h11--11--11/(13)--13\(13)--13------|------------------------|
D|-------------------------|---------------------|----------------------------------|------------------------|
A|-------------------------|---------------------|----------------------------------|------------------------|
E|(0)----------------------|---------------------|----------------------------------|------------------------|
                                .

e|--------------------------|---------------------------|-------------------------|
B|(12)-p10--9--9~~~~~~--16--|---16----17----19--17--16--|---16h17-----------------|
G|----------------------18b-|---18b---19b-----------18b-|---------18~~~~~~~-------|
D|--------------------------|---------------------------|--------------------9h11-|
A|--------------------------|---------------------------|-------------------------|
E|--------------------------|---------------------------|-------------------------|

  PM------|
e|------------------------------------|
B|-----------c10--c9------12-10\(9)-9-|
G|--c9------x----x----c11-------------|
D|11--11-11----------x----------------|
A|------------------------------------|
E|------------------------------------|

                            PM---|                       PM------|   PM------|   PM-------|    PM-------------
e|-------------------------|--------------------------|------------------------------------------------------|
B|(9)~~~~-10---------------|--------------------------|------------------------------------------------------|
G|------------9~~~~~~------|--c9----------------------|------------------------------------------------------|
D|--------------------9h11-|11--11--------------------|------------------------------------------------------|
A|-------------------------|--------11\(9)----7--(17)\|4-----------6-----------7-------------9---------------|
E|-------------------------|---------------------(17)\|--5-7-4-5-7---7-9-5-7-9---9-11-7-9-11---11-12-9-11-12-|
                          (Do a finger slide here ^)
  ----------------|    PM-----------------------------|    PM--------------
e|------------------------------------------------------------------------|
B|------------------------------------------------------------------------|
G|------------------------------------------------------------------------|
D|------------------------------------------------------11----------------|
A|------------------11----------------11-12-14-11-12-14----12-14-11-12-14-|
E|11-12-14-11-12-14----12-14-11-12-14-------------------------------------|

  ----------------|    PM--|
e|------------------------------------------------------------------------|
B|------------------------------------------------------14h16p14---h16-17-|
G|------------------13----------------13h14p13---h14-16-------------------|
D|13-14-16-13-14-16----14-16-13h14h16-------------------------------------|
A|------------------------------------------------------------------------|
E|------------------------------------------------------------------------|


e|14-16-16-16-17p16p14-----------------------------------------------------|
B|---------------------17p16p14-16h17p16p14--------------------------------|
G|------------------------------------------16p14-13--16b~~~~~-------------|
D|-------------------------------------------------------------------------|
A|----------------------------------------------------------------(17)\-/--|
E|----------------------------------------------------------------(17)\-/--|
                                         (Pick+finger slide down, then finger slide up)

e|------------------14-16-17-14-16-17-------------------16-17-19-16-17-19-|
B|14-16-17-14-16-17-------------------16-17-19-16-17-19-------------------|
G|------------------------------------------------------------------------|
D|------------------------------------------------------------------------|
A|------------------------------------------------------------------------|
E|------------------------------------------------------------------------|


e|------------------17-19-21-17-19-21-------------------19-21-23-19-21-13-|
B|17-19-21-17-19-21-------------------19-21-22-19-21-22-------------------|
G|------------------------------------------------------------------------|
D|------------------------------------------------------------------------|
A|------------------------------------------------------------------------|
E|------------------------------------------------------------------------|


e|------------------21-23-24-21-23-24-21-23-24-21-23-24-24b---------------|
B|21-22-24-21-22-24-------------------------------------------------------|
G|------------------------------------------------------------------------|
D|------------------------------------------------------------------------|
A|------------------------------------------------------------------------|
E|------------------------------------------------------------------------|

  LR----------------------------------|
e|24pb--24pb-24pb-24pb-24pb-24pb---~~~---------|------19--------19--------------|
B|---------24pb-24pb-24pb-24pb-24pb~~~-----19b-|(19)------19pb--19pb-----19pb~~~|
G|---------------------------------------------|--------------------------------|
D|---------------------------------------------|--------------------------------|
A|---------------------------------------------|--------------------------------|
E|------------------------------------(17)\----|--------------------------------|
                               (Pick+finger slide)

e|----------------------------------------|----------------------------------------------------------------|
B|19pb-19-17-16-17-16-16------16----16----|----------------------------------------------------------------|
G|-------------------------18----18----18b|(18)~~~-18-16-18-16----16-----------------------------------16b-|
D|----------------------------------------|--------------------18----18\(16)--14-----16----14--16--14------|
A|----------------------------------------|---------------------------------------16----16-----------------|
E|----------------------------------------|----------------------------------------------------------------|

                                    PM
e|----------------------------|-------------------------9------11b-|(11)~~~-11pb-11pb-11pb-11pb-----------|
B|----------------------------|-------------------12b-----12-9-----|----------------------------12-12-12p9|
G|(16)~~~~~~~~~-----------/9--|(9)-----9-11--11p9------------------|--------------------------------------|
D|----------------------------|-----11-----------------------------|--------------------------------------|
A|---------------(17)\--------|------------------------------------|--------------------------------------|
E|---------------(17)\--------|------------------------------------|--------------------------------------|
            (Finger slide)

e|-------------------------|-----------------------------------9--|
B|(9)~~~~~~~~~-------------|12---12---12---12---12---12---12---x--|
G|-------------------------|11pb-11pb-11pb-11pb-11pb-11pb-11pb-6--|
D|-------------------------|--------------------------------------|
A|---------------(17)\-----|--------------------------------------|
E|---------------(17)\-----|--------------------------------------|
            (Finger slide)

e|(9)--9-9-9/(11)-11-11-11/(12)-12-12-12/(14)-14-14-|14/(16)-16-16-16/(17)-17-17-17\(16)-16-16-16\(14)-14-14-|
B|-----x-x-x-------x--x--x-------x--x--x-------x--x-|-x-------x--x--x-------x--x--x-------x--x--x-------x--x-|
G|(6)--6-6-6/(8)---8--8--8/(9)---9--9--9/(11)-11-11-|11/(13)-13-13-13/(14)-14-14-14\(13)-13-13-13\(11)-11-11-|
D|--------------------------------------------------|--------------------------------------------------------|
A|--------------------------------------------------|--------------------------------------------------------|
E|--------------------------------------------------|--------------------------------------------------------|


e|14\(12)-12-12-12\(11)-11-11-11/(12)-12-12-12\(11)-7-7-|7/------------------------------|
B|-x-------x--x--x-------x--x--x-------x--x--x\-----x-x-|x-------------------------------|
G|11\(9)---9--9--9\(8)---8--8--8/(9)---9--9--9\(8)--4-4-|4/---------------x-x-x-x--x-----|
D|------------------------------------------------------|-----------------x-x-x-x--x-----|
A|------------------------------------------------------|--------(17)\----x-x-x-x-18-19~~|
E|------------------------------------------------------|--------(17)\----x-x-x-x--x-----|
                                                         (Pick+finger slide)

e|------------------------------------|---------------------19------------|
B|------------------------------------|----------19--19b~~~-----19pbr-17\-|
G|------------------------------------|-----------------------------------|
D|------------------------------------|-----------------------------------|
A|(19)~~~----------------19----19h21~~|(21)~~~~---------------------------|
E|--------21-19-21~~~~------20--------|-----------------------------------|
                                                  .                    .
[Intro]
PM---------|              PM------------------|    PM-------------------------------------------|
e|-------------------------|------------------------|------------------------|------------0---------9--|
B|-------------------------|------------------------|------------------------|------4--------4------9--|
G|------4-----4h6~~~~4-----|------------------------|------------------------|6--------6--------6--10--|
D|---------6------------4--|------4-----7--6--4-----|------9-----6-----7-----|---7-----------------11--|
A|---7------------------6--|---6-----6-----------7--|---7-----7-----7-----7--|---------------------11--|
E|----------------------7--|---------------------5--|------------------------|----------------------9--|
                        .                        .                                                  .
                                                          LR----------------------------------|
e|--------9------9-----9--7--|------7-----7-----7--5--|(5)-----------0----------|------------0-----------|
B|--------9------9-----9--7--|------7-----7-----7--5--|(5)-----4--------4-------|------4-----------------|
G|-------10-----11----10--8--|------8-----9-----8--6--|(6)--------6--------6----|---------6--------------|
D|-------11------9----11--9--|------9-----9-----9--7--|(7)--7-----------------7-|---7--------------------|
A|-------11-----11----11--9--|------9-----9-----9--7--|(7)----------------------|---------------(17)\----|
E|---9----9--9---9-----9--7--|---7--7--7--7-----7--5--|(5)----------------------|---------------(17)\----|
                          .                                             (End with pick+finger slide down neck)

[Chorus]
                 PM--|     PM    PM                                PM---|LR----------------------------|
e|------------------------|------------------------|------------------------|--------------------------|
B|------------------------|------------------------|------------------------|--------------------------|
G|------------------------|------------------------|------------------------|--------------------------|
D|4--6--6--6--6--------4--|---6--------------4-----|4--6--6--6--6-----------|-----1--2-----------------|x6
A|4--4--4--4--4--4--4--4--|4--4--4--4~~~~~~--2-----|4--4--4--4--4--4--4--2--|(2)--------0--------------|
E|------------------------|------------------------|------------------------|--------------------------|
                                             .
                 PM--|     PM    PM                                PM---|LR-----------------------------
e|------------------------|------------------------|------------------------|-----------------0--------|
B|------------------------|------------------------|------------------------|--------------------4-----|
G|------------------------|------------------------|------------------------|-----------------------4--|
D|4--6--6--6--6--------4--|---6--------------4-----|4--6--6--6--6-----------|-----1--2-----------------|
A|4--4--4--4--4--4--4--4--|4--4--4--4~~~~~~--2-----|4--4--4--4--4--4--4--2--|(2)--------0--------------|
E|------------------------|------------------------|------------------------|--------------------------|
                                             .
  --------------------|   LR--------------------------------------------|   LR------------------------
e|0-----------------------|---------------0--------|0-----------------------|---------------0--------|
B|---4--------------------|------------------4-----|---4--------------------|------------------4-----|
G|------4-----------------|---------------------4--|------4-----------------|---------------------4--|
D|---------2--------------|---1--2-----------------|---------2--------------|---1--2-----------------|x2
A|------------------------|2--------0--------------|------------------------|2--------0--------------|
E|------------------------|------------------------|------------------------|------------------------|

  ------------------------|
e|0-------(0)-------------|
B|---4-----4--------------|
G|------4--4--------------|
D|---------2--------------|
A|------------------------|
E|------------------------|

            
Submit corrections


        Binge And Grab lessons Hard to play? Try these video lessons and learn fast Binge And Grab lessons
        
↑ Back to top | Tablatures and chords for acoustic guitar and electric guitar, ukulele, drums are parodies/interpretations of the original songs. You may use it for private study, scholarship, research or language learning purposes only