» » »

Buckethead - A Real Diamond In The Rough Tabs

Artists:  A B C D E F G H I J K L M N O P Q R S T U V W X Y Z # 

A Real Diamond In The Rough Tabs

(ver. 1) Click to play this song!
Buckethead
 Rating:
4/5 (4 votes)

 A Real Diamond In The Rough lessons Tabs too difficult? Try these video lessons and learn fast
 
                A Real Diamond In The Rough  - Buckethead


e|-9---------9---------9---------8------------|
B|---6---------6---------6---------6----------|
G|-----6---------6---------6---------6--------|X3
D|-------8---------8---------8---------8------|
A|--------------------------------------------|
E|--------------------------------------------|

e|-6--------6--------6---------4--------------|
B|---6--------6--------6---------6------------|
G|-----6--------6--------6---------6----------|
D|-------4--------4--------4---------4--------|
A|--------------------------------------------|
E|--------------------------------------------|

e|-9---------9---------9---------8------------|
B|---6---------6---------6---------6----------|
G|-----6---------6---------6---------6--------|X3
D|-------8---------8---------8---------8------|
A|--------------------------------------------|
E|--------------------------------------------|

e|-6--------6--------6---------4--------------|
B|---6--------6--------6---------6------------|
G|-----6--------6--------6---------6----------|
D|-------4--------4--------4---------4--------|
A|--------------------------------------------|
E|--------------------------------------------|

e|---6----------------|
B|-----6--------------|
G|-------6-6---5------|X4
D|-8---------8---8----|
A|--------------------|
E|--------------------|

e|-----------------|
B|-----------------|
G|-----------------|X4
D|-----------------|
A|-------1-4-------|
E|-6-1-2-----4-----|

Sorry I can't figure out the chords behind the lead : / 

e|----------------------------------|
B|-------6---9-9-7-7-9-9-6-6-9-9-7--|
G|---------6------------------------|X4
D|-8-8-8----------------------------|
A|----------------------------------|
E|----------------------------------|
         
e|-6----6------------------------|
B|-6----6------------------------|
G|-6----6---8s10-10-10s8---------|X4
D|-8----8------------------------|
A|-8----8------------------------|
E|-------------------------------|

This part is probably a bit messed up close though..
e|-6-|----6--------4------4--2-------2-------|
B|-6-|------6---6----6---------6---6---6-----|
G|-6-|--------6--------6---------6-------6---|X2
D|-8-|---------------------------------------|
A|-8-|---------------------------------------|
E|---|---------------------------------------|

This sounds like what is behind lead
e|-------------------------------------|
B|-------------------------------------|
G|-------------------------------------|X4
D|---8--------4--------3--------1------|
A|-----8--------8--------4--------4----|
E|-6-----6--4-----4--2-----2--2--------|

  1st Lead
e|-----------------------------------------|
B|---------------------------------/16-18--|
G|-17--18--17--18-17---17-18-17-18---------|
D|-----------------------------------------|
A|-----------------------------------------|
E|-----------------------------------------|

e|--------------------------------------------|
B|--------------------------------------------|
G|-17--18--17--18-17--------------------------|
D|-------------------20-----------------------|
A|----------------------18h20-18-16-15-16-18--|
E|--------------------------------------------|

e|------------------------------|
B|------------------------------|
G|-----------------------13-----|
D|-15-15b--------11h13s15-------|
A|---------11h13----------------|
E|------------------------------|

e|-6-------6--------6--------|
B|-6-------6--------6--------|
G|-6-------6--------6--------|
D|-8-------8--------8--------|
A|---------------------------|
E|---------------------------|

Behind second lead
e|------------------------------|
B|------------------------------|
G|------------------------------|A lot ha ha
D|--8-8-8-8--6-----8-8-8-8--6---|
A|--8-8-8-8--6-----8-8-8-8--6---|
E|--6-6-6-6--4-----6-6-6-6--4---|

Second Lead
e|-------------------------------------------------------------------|
B|-15b-------------------------------------18b-18-16-14-16-14--------|
G|-15---15-13-10------------------------13--------------------15-18b-|
D|---------------13-11-8-11-13-------11------------------------------|
A|-----------------------------11-13---------------------------------|
E|-------------------------------------------------------------------|

I only have an acoustic so didn't feel like doing the whole solo ask 
if you really want the rest I will get it to you...

End chords 

e|---------------|
B|---------------|
G|---------------|Tell End 
D|--8--6--4------|
A|--8--6--4------|
E|--6--4--2------|

This tab should o.k. tell me what you think rate comment please!! Thanks Daniel..
            
Submit corrections


        A Real Diamond In The Rough lessons Hard to play? Try these video lessons and learn fast A Real Diamond In The Rough lessons
        
↑ Back to top | Tablatures and chords for acoustic guitar and electric guitar, ukulele, drums are parodies/interpretations of the original songs. You may use it for private study, scholarship, research or language learning purposes only