» » »

Buckethead - 4 Lands Tabs

Artists:  A B C D E F G H I J K L M N O P Q R S T U V W X Y Z # 

4 Lands Tabs

(ver. 1) Click to play this song!
Buckethead
 Rating:
4.4/5 (14 votes)

 4 Lands  lessons Tabs too difficult? Try these video lessons and learn fast
 
                
[Intro]

Repeat (x4)
Distortion + Wah wah
                                              F
D#|------------------------------------------------------------------------------|
A#|---6-5-3---------6-5-3--------6-5-3-------------------------------------------|
F#|---------5-4-----------5-4----------5-4---------------------------------------|
C#|3-------------3------------3------------3----x--------------------------------|
G#|-------------------------------------------3-x-3------------------------------|
D#|-------------------------------------------1-x-1------------------------------|

I believe he uses Fuzz + Octave down in this part
D#|------------------------------------------------------------------------------|
A#|------------------------------------------------------------------------------|
F#|---------8-10-8---------------------------------------------------------------|
C#|-8-10-11--------11-10~-------11-13-11-10-8-8~---------------------------------|
G#|------------------------------------------------------------------------------|
D#|------------------------------------------------------------------------------|

Repeat (x4)
Distortion + Wah wah
                                              F
D#|------------------------------------------------------------------------------|
A#|---6-5-3---------6-5-3--------6-5-3-------------------------------------------|
F#|---------5-4-----------5-4----------5-4---------------------------------------|
C#|3-------------3------------3------------3----x--------------------------------|
G#|-------------------------------------------3-x-3------------------------------|
D#|-------------------------------------------1-x-1------------------------------|

Fuzz + Octave
D#|------------------------------------------------------------------------------|
A#|----------------------------------------9-9p8-8h9-----------------------------|
F#|-----------------------10-10p8-8h10~---------------10-10~---------------------|
C#|-8--10-11-10-11-10-8~----------------------------------------8-8h10h11p10~----|
G#|------------------------------------------------------------------------------|
D#|------------------------------------------------------------------------------|

Repeat (x4)
Distortion + Wah wah
                                              F 
D#|------------------------------------------------------------------------------|
A#|---6-5-3---------6-5-3--------6-5-3-------------------------------------------|
F#|---------5-4-----------5-4----------5-4---------------------------------------|
C#|3-------------3------------3------------3----x--------------------------------|
G#|-------------------------------------------3-x-3------------------------------|
D#|-------------------------------------------1-x-1------------------------------|


[As soon as I learn more I'll edit]            
Submit corrections


        4 Lands  lessons Hard to play? Try these video lessons and learn fast 4 Lands  lessons
        
↑ Back to top | Tablatures and chords for acoustic guitar and electric guitar, ukulele, drums are parodies/interpretations of the original songs. You may use it for private study, scholarship, research or language learning purposes only