Home » B » Bts »

Bts - Make It Right Remix Tabs

Artists:  A B C D E F G H I J K L M N O P Q R S T U V W X Y Z # 

Make It Right Remix Tabs

(ver. 1) Click to play this song!
Bts
[Intro]
 
e|--10------------10------------10-------------10----------------------------|
B|----10-10--8------10-10--8------10-10--8-------10-7-8-8--------------------|
G|---------------------------------------------------------------------------|
D|---------------------------------------------------------------------------|
A|---------------------------------------------------------------------------|
E|---------------------------------------------------------------------------|
 
 
[Verse 1]
 
e|--7-7-7-7---------7-----7---------------7----------------------------------|
B|----------10-8-10---------10-8-10---------10-8-10--------8-7-7-8-----------|
G|----------------------------------9---------------9------------------------|
D|---------------------------------------------------------------------------|
A|---------------------------------------------------------------------------|
E|---------------------------------------------------------------------------|
 
e|--7-7-7-7---------7-----7---------------7----------------------------------|
B|----------10-8-10---------10-8-10---------10-8-10--------7-7-8-------------|
G|----------------------------------9---------------9------------------------|
D|---------------------------------------------------------------------------|
A|---------------------------------------------------------------------------|
E|---------------------------------------------------------------------------|
 
 
[Refrain]
 
e|------10-----------------10------------------10----------------------------|
B|--8-8----10-10--8----8-8-----10-10--8----8-8----10-10--8----8--7-7-7--8----|
G|---------------------------------------------------------------------------|
D|---------------------------------------------------------------------------|
A|---------------------------------------------------------------------------|
E|---------------------------------------------------------------------------|
 
e|------10-----------------10--------------7-7-7-8--7---8-7------------------|
B|--8-8----10-10--8----8-8-----10-10--8---------------8-----8----------------|
G|---------------------------------------------------------------------------|
D|---------------------------------------------------------------------------|
A|---------------------------------------------------------------------------|
E|---------------------------------------------------------------------------|
 
 
[Pre Chorus]
 
e|--7-7-7-7-8-7-5-----7-7----10-10-10-10-12-10-7-5---8-7-5-------------------|
B|----------------8-8---------------------------------------8----------------|
G|---------------------------------------------------------------------------|
D|---------------------------------------------------------------------------|
A|---------------------------------------------------------------------------|
E|---------------------------------------------------------------------------|
 
e|------10-10----10-10----7-7------7-5-5-7-----------------------------------|
B|--8-8------8-8--------8------------------7-7-8-----------------------------|
G|---------------------------------------------------------------------------|
D|---------------------------------------------------------------------------|
A|---------------------------------------------------------------------------|
E|---------------------------------------------------------------------------|
 
 
[Chorus]
 
e|-------------7-5---5-7-----------------------7-5---5-7---------------------|
B|--7-8--7-8-------------7-7-8----7-8--7-8---------------7-7-8---------------|
G|-----------------------------------------9---------------------------------|
D|---------------------------------------------------------------------------|
A|---------------------------------------------------------------------------|
E|---------------------------------------------------------------------------|
 
 
[Verse 2]
 
e|--7-7-7-7---------7-----7---------------7----------------------------------|
B|----------10-8-10---------10-8-10---------10-8-10--------8-7-7-8-----------|
G|----------------------------------9---------------9------------------------|
D|---------------------------------------------------------------------------|
A|---------------------------------------------------------------------------|
E|---------------------------------------------------------------------------|
 
e|--7-7-7-7---------12-10----7----------12-10-----7-5---7-----8-7-5----------|
B|----------10-8-10------------10-8-10----------------8---8---------8--------|
G|---------------------------------------------------------------------------|
D|---------------------------------------------------------------------------|
A|---------------------------------------------------------------------------|
E|---------------------------------------------------------------------------|
 
 
[Verse 3]
 
e|---------------------------------------------------------------------------|
B|--8-8-8-8---5-5---7-8-8-8-8---5-5----7-8-8-8-8---5-5---7-8-8-8-8--7--------|
G|---------------------------------------------------------------------------|
D|---------------------------------------------------------------------------|
A|---------------------------------------------------------------------------|
E|---------------------------------------------------------------------------|
 
e|-------------------------------------------7-------------------------------|
B|------5-----------------------------5-5-5----5------5-5-5------------------|
G|--7-7---7-7---7-7-7-7-7--7-7-7-7-7-------------7-7-------------------------|
D|---------------------------------------------------------------------------|
A|---------------------------------------------------------------------------|
E|---------------------------------------------------------------------------|
 
 
[Refrain]
 
e|--8-7-5-----------10------------------10----------------10-----------------|
B|--------8-----8-8----10-10--8----8-8----10-10--8----8-8---10-10--8---------|
G|---------------------------------------------------------------------------|
D|---------------------------------------------------------------------------|
A|---------------------------------------------------------------------------|
E|---------------------------------------------------------------------------|
 
e|-------------------10------------------10------------7-7-7-8--7---8-7------|
B|--8-7-7-7-8----8-8----10-10--8----8-8----10-10--8---------------8----8-----|
G|---------------------------------------------------------------------------|
D|---------------------------------------------------------------------------|
A|---------------------------------------------------------------------------|
E|---------------------------------------------------------------------------|
 
[Pre-Chorus]
 
e|--7-7-7-7-8-7-5-----7-7----10-10-10-10-12-10-7-5---8-7-5-------------------|
B|----------------8-8---------------------------------------8----------------|
G|---------------------------------------------------------------------------|
D|---------------------------------------------------------------------------|
A|---------------------------------------------------------------------------|
E|---------------------------------------------------------------------------|
 
e|------10-10----10-10----7-7------7-5-5-7-----------------------------------|
B|--8-8------8-8--------8------------------7-7-8-----------------------------|
G|---------------------------------------------------------------------------|
D|---------------------------------------------------------------------------|
A|---------------------------------------------------------------------------|
E|---------------------------------------------------------------------------|
 
[Chorus]
 
e|-------------7-5---5-7-----------------------7-5---5-7---------------------|
B|--7-8--7-8-------------7-7-8----7-8--7-8---------------7-7-8---------------|
G|-----------------------------------------9---------------------------------|
D|---------------------------------------------------------------------------|
A|---------------------------------------------------------------------------|
E|---------------------------------------------------------------------------|
 
[Bridge]
 
e|---------------------------------------------------------------------------|
B|--8-7-8-7-8-7-8-7-8---5--7-8-7-8-7-8-7-8-7-8---8---5-----------------------|
G|-------------------------------------------------7-------------------------|
D|---------------------------------------------------------------------------|
A|---------------------------------------------------------------------------|
E|---------------------------------------------------------------------------|
 
e|---------------------------------------------------------------------------|
B|--8-7-8-7-8-7-8-7-8---5-5---8-7-8-7-8-7-8-7-8---8---5----------------------|
G|--------------------------------------------------7------------------------|
D|---------------------------------------------------------------------------|
A|---------------------------------------------------------------------------|
E|---------------------------------------------------------------------------|
 
e|---------------------------------------------------------------------------|
B|--8-7-8-8--8-8--5-8-7-8-8-8-----8-7-8-7-8-7--5-----------------------------|
G|-----------------------------7-----------------7-7-7-7-7-7-7-7-7-7-7-7-7-7-|
D|---------------------------------------------------------------------------|
A|---------------------------------------------------------------------------|
E|---------------------------------------------------------------------------|
 
[Refrain]
 
e|------------10--------------10------------7-5-5-7--------------------------|
B|--7-8---8-8----10-10-8--8-8----10-10-8------------7-7-8--------------------|
G|---------------------------------------------------------------------------|
D|---------------------------------------------------------------------------|
A|---------------------------------------------------------------------------|
E|---------------------------------------------------------------------------|
 
[Outro]
 
e|------10--------------10----------7-5-5-7------------------7-5--5-7--------|
B|--8-8----10-10-8--8-8----10-10-8----------7-7-8--7-8--7-8-----------7-7-8--|
G|---------------------------------------------------------------------------|
D|---------------------------------------------------------------------------|
A|---------------------------------------------------------------------------|
E|---------------------------------------------------------------------------|
            
Submit corrections

↑ Back to top | Tablatures and chords for acoustic guitar and electric guitar, ukulele, drums are parodies/interpretations of the original songs. You may use it for private study, scholarship, research or language learning purposes only