» » »

Bts - Intro Persona Tabs

Artists:  A B C D E F G H I J K L M N O P Q R S T U V W X Y Z # 

Intro Persona Tabs

(ver. 1) Click to play this song!
Bts
 Rating:
4.3/5 (9 votes)

 Intro Persona lessons Tabs too difficult? Try these video lessons and learn fast
 
                [Intro] 0:00
Heavy flanger
e|-------------------------------|---------------------|
B|-------------------------------|---------------------|
G|-------------------------------|---------------------|
D|--5---5---7~-----5~-----7~-----|--9---9--------------| x2
A|--5---5---7~-----5~-----7~-----|--9---9--/9--7-------|
E|--3---3---5~-----3~-----5~-----|--7---7--------10-7--|

[Verse 1] 0:12
Flanger off
e|-----------------------------------------------------------------------------------------------------|
B|-----------------------------------------------------------------------------------------------------|
G|-----------------------------------------------------------------------------------------------------|
D|-----------------7--9--5-----------------7--9--12-----------------7--9--5-----------------12--9--12--| x2
A|--7--7-7-7--7-7--5--7--3--7--7-7-7--7-7--5--7--10--7--7-7-7--7-7--5--7--3--3--3-3-3--3-3--10--7--10--|
E|--5--5-5-5--5-5-----------5--5-5-5--5-5------------5--5-5-5--5-5-----------1--1-1-1--1-1-------------|
       x x    x x              x x    x x               x x    x x              x x    x x

[Verse 2] 0:35
Rest for four bars (Play at 0:45)
e|------------------------------------------------------------------------------------------------------|
B|------------------------------------------------------------------------------------------------------|
G|------------------------------------------------------------------------------------------------------|
D|------------------7--9--------------------7--9--------------------7--9--5-----------------12--9--12---|
A|--7--7-7----------5--7-----7--7-7---------5--7-----7--7-7-7--7-7--5--7--3--3--3-3-3--3-3--10--7--10---|
E|--5--5-5-------------------5--5-5------------------5--5-5-5--5-5-----------1--1-1-1--1-1--------------|
       x x                      x x                     x x    x x              x x    x x

[Verse 3] 0:56
e|-----------------------------------------------------------------------------------------------------|
B|-----------------------------------------------------------------------------------------------------|
G|-----------------------------------------------------------------------------------------------------|
D|-----------------7--9--5-----------------7--9--12-----------------------------------------12--9--12--|
A|--7--7-7-7--7-7--5--7--3--7--7-7-7--7-7--5--7--10--7--7-7-7--7-7--------------------------10--7--10--|
E|--5--5-5-5--5-5-----------5--5-5-5--5-5------------5--5-5-5--5-5-------------------------------------|
       x x    x x              x x    x x               x x    x x              

e|-----------------------------------------------------------------------------------------------------|
B|-----------------------------------------------------------------------------------------------------|
G|-----------------------------------------------------------------------------------------------------|
D|-----------------7--9--5--------------------9--12-----------------7--9--5----------------------------| 
A|--7--7-7-7--7-7--5--7--3--7--7-7-7--7-7-----7--10--7--7-7-7--7-7--5--7--3--3--3-3-3--3-3-------------|
E|--5--5-5-5--5-5-----------5--5-5-5--5-5------------5--5-5-5--5-5-----------1--1-1-1--1-1-------------|
       x x    x x              x x    x x               x x    x x              x x    x x

[Chorus] 1:29
e|-----------------------------------------------------------------------------------------------------|
B|-----------------------------------------------------------------------------------------------------|
G|-----------------7--9--5-----------------7--9--12-----------------7--9--5-----------------12--9--12--|
D|--7--7-7-7--7-7--7--9--5--7--7-7-7--7-7--7--9--12--7--7-7-7--7-7--7--9--5--3--3-3-3--3-3--12--9--12--|
A|--7--7-7-7--7-7--5--7--3--7--7-7-7--7-7--5--7--10--7--7-7-7--7-7--5--7--3--3--3-3-3--3-3--10--7--10--|
E|--5--5-5-5--5-5-----------5--5-5-5--5-5------------5--5-5-5--5-5-----------1--1-1-1--1-1-------------|

[Interlude] 1:41
e|-----------------------------------------------------------------------------------------------------|
B|-----------------------------------------------------------------------------------------------------|
G|-----------------------------------------------------------------------------------------------------|
D|-----------------7--9--5-----------------7--9--12-----------------7--9--5-----------------12--9--12--|
A|--7--7-7-7--7-7--5--7--3--7--7-7-7--7-7--5--7--10--7--7-7-7--7-7--5--7--3--3--3-3-3--3-3--10--7--10--|
E|--5--5-5-5--5-5-----------5--5-5-5--5-5------------5--5-5-5--5-5-----------1--1-1-1--1-1-------------|
       x x    x x              x x    x x               x x    x x              x x    x x

[Verse 4] 1:52
e|----------------------------------------------------------------------------------------------------|
B|----------------------------------------------------------------------------------------------------|
G|----------------------------------------------------------------------------------------------------|
D|--7\----------------------7\-----------------------7\----------------------3\-----------------------|
A|--7\----------------------7\-----------------------7\----------------------3\-----------------------|
E|--5\----------------------5\-----------------------5\----------------------1\-----------------------|

e|-----------------------------------------------------------------------------------------------------|
B|-----------------------------------------------------------------------------------------------------|
G|-----------------------------------------------------------------------------------------------------|
D|-----------------7--9--5-----------------7--9--12-----------------7--9--5-----------------12--9--12--|
A|--7--7-7-7--7-7--5--7--3--7--7-7-7--7-7--5--7--10--7--7-7-7--7-7--5--7--3--3--3-3-3--3-3--10--7--10--|
E|--5--5-5-5--5-5-----------5--5-5-5--5-5------------5--5-5-5--5-5-----------1--1-1-1--1-1-------------|
       x x    x x              x x    x x               x x    x x              x x    x x

e|-----------------------------------------------------------------------------------------------------|
B|-----------------------------------------------------------------------------------------------------|
G|-----------------------------------------------------------------------------------------------------|
D|-----------------7--9--5-----------------7--9--12-----------------7--9--5----------------------------| 
A|--7--7-7-7--7-7--5--7--3--7--7-7-7--7-7--5--7--10--7--7-7-7--7-7--5--7--3--3--3-3-3--3-3-------------|
E|--5--5-5-5--5-5-----------5--5-5-5--5-5------------5--5-5-5--5-5-----------1--1-1-1--1-1-------------|
       x x    x x              x x    x x               x x    x x              x x    x x

[Chorus] 2:24
e|-----------------------------------------------------------------------------------------------------|
B|-----------------------------------------------------------------------------------------------------|
G|-----------------7--9--5-----------------7--9--12-----------------7--9--5-----------------12--9--12--|
D|--7--7-7-7--7-7--7--9--5--7--7-7-7--7-7--7--9--12--7--7-7-7--7-7--7--9--5--3--3-3-3--3-3--12--9--12--|
A|--7--7-7-7--7-7--5--7--3--7--7-7-7--7-7--5--7--10--7--7-7-7--7-7--5--7--3--3--3-3-3--3-3--10--7--10--|
E|--5--5-5-5--5-5-----------5--5-5-5--5-5------------5--5-5-5--5-5-----------1--1-1-1--1-1-------------|

e|---------------------------------------------------------------------------------------------------------|
B|---------------------------------------------------------------------------------------------------------|
G|-----------------7--9--5-----------------7--9--12-----------------7--9--5-------------------------12-14~-|
D|--7--7-7-7--7-7--7--9--5--7--7-7-7--7-7--7--9--12--7--7-7-7--7-7--7--9--5--3--3-3-3--3-3-------10--------|
A|--7--7-7-7--7-7--5--7--3--7--7-7-7--7-7--5--7--10--7--7-7-7--7-7--5--7--3--3--3-3-3--3-3----10-----------|
E|--5--5-5-5--5-5-----------5--5-5-5--5-5------------5--5-5-5--5-5-----------1--1-1-1--1-1--9--------------|

            
Submit corrections


        Intro Persona lessons Hard to play? Try these video lessons and learn fast Intro Persona lessons
        
↑ Back to top | Tablatures and chords for acoustic guitar and electric guitar, ukulele, drums are parodies/interpretations of the original songs. You may use it for private study, scholarship, research or language learning purposes only