» » »

Bruce Springsteen - Streets Of Philadelphia Bass

Artists:  A B C D E F G H I J K L M N O P Q R S T U V W X Y Z # 

Streets Of Philadelphia Bass

(ver. 2) Click to play this song!
Bruce Springsteen
 Rating:
4.3/5 (29 votes)

 Streets Of Philadelphia lessons Tabs too difficult? Try these video lessons and learn fast
 
                 Intro
   NC           NC           NC           NC
 |------------|------------|------------|------------||-------------|------------|------------|-------------||
 |------------|------------|------------|------------||o------------|------------|------------|------------o||
 |------------|------------|------------|------------||o------------|------------|------------|------------o||
 |------------|------------|------------|------------||--1----------|----------1/|5-----------|-------------||


 Verse 1

 |------------|------------|------------|------------|------------|------------|------------|------------|
 |------------|------------|------------|------------|------------|------------|------------|------------|
 |------------|------------|------------|------------|------------|------------|------------|------------|
 |1-----------|------------|5-----------|------------|1-----------|------------|5-----------|-----------5|


 Chorus 1

 |------------|------------|------------|------------|------------|------------|------------|------------|
 |------------|------------|------------|------------|------------|------------|------------|------------|
 |------------|------------|3-----------|3-----------|------------|------------|3-----------|------------|
 |6-----------|5-----------|------------|------------|6-----------|5-----------|------------|----------8\|


 Verse 2

 |------------|------------|------------|------------|------------|------------|------------|------------|
 |------------|------------|------------|------------|------------|------------|------------|------------|
 |------------|------------|------------|------------|------------|------------|------------|------------|
 |1-----------|------------|5-----------|------------|1-----------|----------1/|5-----------|------------|


 Chorus 2

 |------------|------------|-------------|------------|-----------|-------------|-----------|------------|
 |------------|------------|-------------|------------|-----------|-------------|-----------|------------|
 |------------|------------|3------------|3----------0|1----------|0---------0--|3----------|3-----------|
 |6-----------|5----------3|------------3|------------|----------1|------------3|--------3-3|-----------1|


 Bridge

 |----------|----------|----------|----------|----------|----------|----------|5---------|----------|
 |----------|----------|----------|----------|----------|----------|---------5|--------5-|----------|
 |1--------3|5--------3|----------|----------|----------|----------|----------|----------|3---------|
 |----------|----------|6--------6|\1-----1-3|5---------|6--------6|3---------|----------|----------|


 Verse 3

 |------------|------------|------------|------------|------------|------------|------------|------------|
 |------------|------------|------------|------------|------------|------------|------------|--------7---|
 |------------|------------|------------|------------|------------|--------3---|-----------7|------------|
 |1-----------|----------1/|5-----------|------------|1-----------|-----------1|/5----------|5----------5|


 Chorus 3

 |------------|------------|-----5------|-------5----|------------|------------|------------|5-----------|
 |------------|--------7---|-----------5|----3h5---5-|------------|------------|-----------5|-------5---5|
 |------------|------------|3-----------|3----------3|------------|------------|3-----------|---------3--|
 |6----------6|5----------5|------------|------------|6----------6|5----------5|------------|------------|



 |------------|------------|------------|------------|------------|------------|------------|------------|
 |------------|------------|------------|------------|------------|------------|------------|------------|
 |------------|------------|------------|------------|------------|------------|------------|------------|
 |6----------6|5---------5/|8-----------|8-----------|6--------6-6|5---------5/|8-----------|8-----------|Fade
            
Submit corrections


        Streets Of Philadelphia lessons Hard to play? Try these video lessons and learn fast Streets Of Philadelphia lessons
        
↑ Back to top | Tablatures and chords for acoustic guitar and electric guitar, ukulele, drums are parodies/interpretations of the original songs. You may use it for private study, scholarship, research or language learning purposes only