Home » B » Bruce Springsteen »

Bruce Springsteen - Jersey Girl Bass

Artists:  A B C D E F G H I J K L M N O P Q R S T U V W X Y Z # 

Jersey Girl Bass

(ver. 2) Click to play this song!
Bruce Springsteen
E|--5-----------------------------|-x2
A|----4--7------------------------|
D|--------------------------------|
G|--------------------------------|

E|--------------------------------|x2
A|--------------------------------|
D|-5------------------------------|
G|---4---7------------------------|
            
Submit corrections

↑ Back to top | Tablatures and chords for acoustic guitar and electric guitar, ukulele, drums are parodies/interpretations of the original songs. You may use it for private study, scholarship, research or language learning purposes only