Home » B » Bruce Cockburn »

Bruce Cockburn - If A Tree Falls Tabs

Artists:  A B C D E F G H I J K L M N O P Q R S T U V W X Y Z # 

If A Tree Falls Tabs

(ver. 1) Click to play this song!
Bruce Cockburn
 Rating:
4.3/5 (23 votes)
                                    \0.5/                                   \0.5/
                    ~~~~~                                   ~~~~~
    Q  E E E Q  E   Q.       E   Q   E E   E E E E E Q  E   Q.       E   H
||----------------|----------------------|----------------|--------------------|
||o--------3----3-|-3-------(3)-(3)------|---------0----0-|-0-------(0)-(0)----|
||---------0----0-|-0-------(0)-(0)------|---------0----0-|-0-------(0)-(0)----|
||-------0---0----|-0-------(0)-(0)------|-----------2----|-2-------(2)-(2)----|
||o---------------|----------------------|----------------|--------------------|
||--5--5----------|------------------5-5-|-2-2-2-2--------|--------------------|


  D
  E E E E E E E E   E E E E E E E E   E E E E E E E E   E E E E E E E E
|-----------2---2-|---2-2-2-2-2---2-|-2-2-2---2-2-----|-2-2-2---2-2-------||
|-----------3---3-|---3-3-3-3-3---3-|-3-3-3---3-3---3-|-3-3-3---3-3------o||
|-----------2---2-|---2-2-2-2-2---2-|-2-2-2---2-2---2-|-2-2-2---2-2-------||
|-----------------|-----------------|---------------0-|---------------0---||
|-----------------|-----------------|-----------------|------------------o||
|-0-0-0-0-0---0---|-0---0-0-0-0-0---|-0-0-0-0-0-0-0---|-0-0-0-0-0-0-0-----||


   1st - 5th Verses
    $
    G5                                     Em
                    \0.5/                                   \0.5/
                    ~~~~~                                   ~~~~~
    Q  E E E Q  E   Q.       E   Q   E E   E E E E E Q  E   Q.       E   H
||----------------|----------------------|----------------|--------------------|
||o--------3----3-|-3-------(3)-(3)------|---------0----0-|-0-------(0)-(0)----|
||---------0----0-|-0-------(0)-(0)------|---------0----0-|-0-------(0)-(0)----|
||-------0---0----|-0-------(0)-(0)------|-----------2----|-2-------(2)-(2)----|
||o---------------|----------------------|----------------|--------------------|
||--5--5----------|------------------5-5-|-2-2-2-2--------|--------------------|


  D
  E E E E E E E E   E E E E E E E E   E E E E E E E E   E E E E E E E E
|-----------2---2-|---2-2-2-2-2---2-|-2-2-2---2-2-----|-2-2-2---2-2------|
|-----------3---3-|---3-3-3-3-3---3-|-3-3-3---3-3---3-|-3-3-3---3-3------|
|-----------2---2-|---2-2-2-2-2---2-|-2-2-2---2-2---2-|-2-2-2---2-2------|
|-----------------|-----------------|---------------0-|---------------0--|
|-----------------|-----------------|-----------------|------------------|
|-0-0-0-0-0---0---|-0---0-0-0-0-0---|-0-0-0-0-0-0-0---|-0-0-0-0-0-0-0----|


  G5                                     Em
                  \0.5/                                   \0.5/
                  ~~~~~                                   ~~~~~
  Q  E E E Q  E   Q.       E   Q   E E   E E E E E Q  E   Q.       E   H
|---------------|----------------------|----------------|--------------------|
|--------3----3-|-3-------(3)-(3)------|---------0----0-|-0-------(0)-(0)----|
|--------0----0-|-0-------(0)-(0)------|---------0----0-|-0-------(0)-(0)----|
|------0---0----|-0-------(0)-(0)------|-----------2----|-2-------(2)-(2)----|
|---------------|----------------------|----------------|--------------------|
|-5--5----------|------------------5-5-|-2-2-2-2--------|--------------------|


                                                       1.
  D
  E E E E E E E E   E E E E E E E E   E E E E E E E E   E E E E E E E E
|-----------2---2-|---2-2-2-2-2---2-|-2-2-2---2-2-----|-2-2-2---2-2-------||
|-----------3---3-|---3-3-3-3-3---3-|-3-3-3---3-3---3-|-3-3-3---3-3------o||
|-----------2---2-|---2-2-2-2-2---2-|-2-2-2---2-2---2-|-2-2-2---2-2-------||
|-----------------|-----------------|---------------0-|---------------0---||
|-----------------|-----------------|-----------------|------------------o||
|-0-0-0-0-0---0---|-0---0-0-0-0-0---|-0-0-0-0-0-0-0---|-0-0-0-0-0-0-0-----||


                    Chorus
  2.,D.S.
                     G5
                                     \0.5/
                                     ~~~~~
  E E E E E E E E    Q  E E E Q  E   Q.       E   Q   E E
|-2-2-2---2-2-----||---------------|----------------------|
|-3-3-3---3-3-----||--------3----3-|-3-------(3)-(3)------|
|-2-2-2---2-2-----||--------0----0-|-0-------(0)-(0)------|
|---------------0-||------0---0----|-0-------(0)-(0)------|
|-----------------||---------------|----------------------|
|-0-0-0-0-0-0-0---||-5--5----------|------------------5-5-|


  Em
                   \0.5/
                   ~~~~~
  E E E E E Q  E   Q.       E   H
|----------------|--------------------|
|---------0----0-|-0-------(0)-(0)----|
|---------0----0-|-0-------(0)-(0)----|
|-----------2----|-2-------(2)-(2)----|
|----------------|--------------------|
|-2-2-2-2--------|--------------------|


  D
  E E E E E E E a  E    E  E  E  E  E  E  E  E
|--------------------|-------------10-10-10-10-|
|---------7-7--------|-10-10-10-10-10-10-10-10-|
|---------7-7---9s11-|-11-11-11-11-11-11-11-11-|
|---------7-7--------|-12-12-12----------------|
|--------------------|-------------------------|
|-0-0-0-0-0-0-0----0-|--0--0--0--0--0--0--0--0-|


   E  E  E  E  E  E  E  E    E  E  E  E  E  E  E  E
|-------10----10-10----14-|-14-14-14-14-14-14-14-14-|
|-10-10-10-10-10-10-10-15-|-15-15-15-15-15-15-15-15-|
|-11-11-11-11-11----11-14-|-14-14-14-14-14-14-14-14-|
|-------------------------|-------------------------|
|-------------------------|-------------------------|
|--0--0--0--0--0--0--0--0-|--0-----0-----0-----0----|


  G5                                     Em
                  \0.5/                                   \0.5/
                  ~~~~~                                   ~~~~~
  Q  E E E Q  E   Q.       E   Q   E E   E E E E E Q  E   Q.       E   H
|---------------|----------------------|----------------|--------------------|
|--------3----3-|-3-------(3)-(3)------|---------0----0-|-0-------(0)-(0)----|
|--------0----0-|-0-------(0)-(0)------|---------0----0-|-0-------(0)-(0)----|
|------0---0----|-0-------(0)-(0)------|-----------2----|-2-------(2)-(2)----|
|---------------|----------------------|----------------|--------------------|
|-5--5----------|------------------5-5-|-2-2-2-2--------|--------------------|


  D
  E E E E E E E a  E    E  E  E  E  E  E  E  E
|--------------------|-------------10-10-10-10-|
|---------7-7--------|-10-10-10-10-10-10-10-10-|
|---------7-7---9s11-|-11-11-11-11-11-11-11-11-|
|---------7-7--------|-12-12-12----------------|
|--------------------|-------------------------|
|-0-0-0-0-0-0-0----0-|--0--0--0--0--0--0--0--0-|


   E  E  E  E  E  E  E  E    E  E  E  E  E  E  E  E
|-------10----10-10----14-|-14-14-14-14-14-14-14-14-|
|-10-10-10-10-10-10-10-15-|-15-15-15-15-15-15-15-15-|
|-11-11-11-11-11----11-14-|-14-14-14-14-14-14-14-14-|
|-------------------------|-------------------------|
|-------------------------|-------------------------|
|--0--0--0--0--0--0--0--0-|--0-----0-----0-----0----|


  G5                                     Em
                  \0.5/                                   \0.5/
                  ~~~~~                                   ~~~~~
  Q  E E E Q  E   Q.       E   Q   E E   E E E E E Q  E   Q.       E   H
|---------------|----------------------|----------------|--------------------|
|--------3----3-|-3-------(3)-(3)------|---------0----0-|-0-------(0)-(0)----|
|--------0----0-|-0-------(0)-(0)------|---------0----0-|-0-------(0)-(0)----|
|------0---0----|-0-------(0)-(0)------|-----------2----|-2-------(2)-(2)----|
|---------------|----------------------|----------------|--------------------|
|-5--5----------|------------------5-5-|-2-2-2-2--------|--------------------|


                                                                  To Coda
  D
  E E E E E E E a  E    E  E  E  E  E  E  E  E    E  E  E  E  E  E  E  E
|--------------------|-------------10-10-10-10-|-------10----10-10----14--|
|---------7-7--------|-10-10-10-10-10-10-10-10-|-10-10-10-10-10-10-10-15--|
|---------7-7---9s11-|-11-11-11-11-11-11-11-11-|-11-11-11-11-11----11-14--|
|---------7-7--------|-12-12-12----------------|--------------------------|
|--------------------|-------------------------|--------------------------|
|-0-0-0-0-0-0-0----0-|--0--0--0--0--0--0--0--0-|--0--0--0--0--0--0--0--0--|


              D.S. al Coda &
   E  E  E  E  E  E  E  E      E  E  E  E  E  E  E  E
|-14-14-14-14-14-14-14-14--||-14-14-14-14-14-14-14-14----||
|-15-15-15-15-15-15-15-15--||-15-15-15-15-15-15-15-15----||
|-14-14-14-14-14-14-14-14--||-14-14-14-14-14-14-14-14----||
|--------------------------||----------------------------||
|--------------------------||----------------------------||
|--0-----0-----0-----0-----||--0-----0-----0-----0-------||


   Out-Chorus
    G5                                     Em
                    \0.5/                                   \0.5/
                    ~~~~~                                   ~~~~~
    Q  E E E Q  E   Q.       E   Q   E E   E E E E E Q  E   Q.       E   H
||----------------|----------------------|----------------|--------------------|
||o--------3----3-|-3-------(3)-(3)------|---------0----0-|-0-------(0)-(0)----|
||---------0----0-|-0-------(0)-(0)------|---------0----0-|-0-------(0)-(0)----|
||-------0---0----|-0-------(0)-(0)------|-----------2----|-2-------(2)-(2)----|
||o---------------|----------------------|----------------|--------------------|
||--5--5----------|------------------5-5-|-2-2-2-2--------|--------------------|


  D
  E E E E E E E a  E    E  E  E  E  E  E  E  E
|--------------------|-------------10-10-10-10-|
|---------7-7--------|-10-10-10-10-10-10-10-10-|
|---------7-7---9s11-|-11-11-11-11-11-11-11-11-|
|---------7-7--------|-12-12-12----------------|
|--------------------|-------------------------|
|-0-0-0-0-0-0-0----0-|--0--0--0--0--0--0--0--0-|


   E  E  E  E  E  E  E  E    E  E  E  E  E  E  E  E
|-------10----10-10----14-|-14-14-14-14-14-14-14-14-|
|-10-10-10-10-10-10-10-15-|-15-15-15-15-15-15-15-15-|
|-11-11-11-11-11----11-14-|-14-14-14-14-14-14-14-14-|
|-------------------------|-------------------------|
|-------------------------|-------------------------|
|--0--0--0--0--0--0--0--0-|--0-----0-----0-----0----|


  G5                                     Em
                  \0.5/                                   \0.5/
                  ~~~~~                                   ~~~~~
  Q  E E E Q  E   Q.       E   Q   E E   E E E E E Q  E   Q.       E   H
|---------------|----------------------|----------------|--------------------|
|--------3----3-|-3-------(3)-(3)------|---------0----0-|-0-------(0)-(0)----|
|--------0----0-|-0-------(0)-(0)------|---------0----0-|-0-------(0)-(0)----|
|------0---0----|-0-------(0)-(0)------|-----------2----|-2-------(2)-(2)----|
|---------------|----------------------|----------------|--------------------|
|-5--5----------|------------------5-5-|-2-2-2-2--------|--------------------|


  D
  E E E E E E E a  E    E  E  E  E  E  E  E  E
|--------------------|-------------10-10-10-10-|
|---------7-7--------|-10-10-10-10-10-10-10-10-|
|---------7-7---9s11-|-11-11-11-11-11-11-11-11-|
|---------7-7--------|-12-12-12----------------|
|--------------------|-------------------------|
|-0-0-0-0-0-0-0----0-|--0--0--0--0--0--0--0--0-|


   E  E  E  E  E  E  E  E    E  E  E  E  E  E  E  E
|-------10----10-10----14-|-14-14-14-14-14-14-14-14-|
|-10-10-10-10-10-10-10-15-|-15-15-15-15-15-15-15-15-|
|-11-11-11-11-11----11-14-|-14-14-14-14-14-14-14-14-|
|-------------------------|-------------------------|
|-------------------------|-------------------------|
|--0--0--0--0--0--0--0--0-|--0-----0-----0-----0----|


  G5                                     Em
                  \0.5/                                   \0.5/
                  ~~~~~                                   ~~~~~
  Q  E E E Q  E   Q.       E   Q   E E   E E E E E Q  E   Q.       E   H
|---------------|----------------------|----------------|--------------------|
|--------3----3-|-3-------(3)-(3)------|---------0----0-|-0-------(0)-(0)----|
|--------0----0-|-0-------(0)-(0)------|---------0----0-|-0-------(0)-(0)----|
|------0---0----|-0-------(0)-(0)------|-----------2----|-2-------(2)-(2)----|
|---------------|----------------------|----------------|--------------------|
|-5--5----------|------------------5-5-|-2-2-2-2--------|--------------------|


  D
  E E E E E E E a  E    E  E  E  E  E  E  E  E
|--------------------|-------------10-10-10-10-|
|---------7-7--------|-10-10-10-10-10-10-10-10-|
|---------7-7---9s11-|-11-11-11-11-11-11-11-11-|
|---------7-7--------|-12-12-12----------------|
|--------------------|-------------------------|
|-0-0-0-0-0-0-0----0-|--0--0--0--0--0--0--0--0-|


   E  E  E  E  E  E  E  E    E  E  E  E  E  E  E  E  3x
|-------10----10-10----14-|-14-14-14-14-14-14-14-14--||
|-10-10-10-10-10-10-10-15-|-15-15-15-15-15-15-15-15-o||
|-11-11-11-11-11----11-14-|-14-14-14-14-14-14-14-14--||
|-------------------------|--------------------------||
|-------------------------|-------------------------o||
|--0--0--0--0--0--0--0--0-|--0-----0-----0-----0-----||            
Submit corrections

↑ Back to top | Tablatures and chords for acoustic guitar and electric guitar, ukulele, drums are parodies/interpretations of the original songs. You may use it for private study, scholarship, research or language learning purposes only