Home » B » Bronx »

Bronx - Shitty Future Bass

Artists:  A B C D E F G H I J K L M N O P Q R S T U V W X Y Z # 

Shitty Future Bass

(ver. 1) Click to play this song!
Bronx
----------------------------------------------------------------------------
			     sh*tTY FUTURE - The Bronx
----------------------------------------------------------------------------
Tuning: EADG


Intro


G-----------------------------|
D-----------------------------|
A-5-----4-----5-----4---------|
E---6-6---6-6---6-6---6-6-6-6-|

  1 + 2 + 3 + 4 + 5 + 6 + 7 +

---------------------------------

Intro Pt. 2 / Verse

G-----------------|
D-----------------|
A-------4---------|
E-6-6-6---6-6---6-|

  1 + 2 + 3 + 4 +

---------------------------------

Chorus

G---------------------------------|
D---------------------------------|
A-4-4-4-4-4-4-4-4-4-5---3---4---2-|
E---------------------------------|

  1 + 2 + 3 + 4 + 1 + 2 + 3 + 4 +

G---------------------------------|
D---------------------------------|
A-1-1-1-1-4-1-1-1-1-1-1-1-4-1-1-1-|
E---------------------------------|

  1 + 2 + 3 + 4 + 1 + 2 + 3 + 4 +

---------------------------------

Bridge

G-----------------|
D-----------------|
A-5-----4---------|
E---6-6---6-4-5-6-|

  1 + 2 + 3 + 4 + 5 + 6 + 7 +

That's it, have fun. It's fun as hell to play, especially on bass.

Order of the song:

Intro
Intro Pt. 2
Verse
Chorus
Verse
Chorus
Bridge
Verse
Chorus
            
Submit corrections

↑ Back to top | Tablatures and chords for acoustic guitar and electric guitar, ukulele, drums are parodies/interpretations of the original songs. You may use it for private study, scholarship, research or language learning purposes only