» » »

Broken Back - Wait Tabs

Artists:  A B C D E F G H I J K L M N O P Q R S T U V W X Y Z # 

Wait Tabs

(ver. 1) Click to play this song!
Broken Back
 Rating:
4.3/5 (13 votes)

 Wait lessons Tabs too difficult? Try these video lessons and learn fast
 
                [Intro] (at the end of the 2nd loop it mixes with the verse riff)
    Am            F                   C            E
e|-------0-----0--1--------1h3-----------0------0--0---------0h3-------------|
B|---------1---1--1--1---1-----1---1--------1---1--0---0---0-----0---0-------|
G|--0h2------2---------2---------2----0-------0----------1---------1---------|
D|---------------------------------------------------------------------------|
A|---------------------------------------------------------------------------|
E|---------------------------------------------------------------------------|
    Am            F                   C            E
e|-------0-----0--1--------1h3-----------0------0--0--0--0--0---|
B|---------1---1--1--1---1-----1---1--------1---1--0--0--0--0---|
G|--0h2------2---------2---------2----0-------0-----------------|
D|--------------------------------------------------------------|
A|--------------------------------------------------------------|
E|--------------------------------------------------------------|

[Verse 1]
    Am           F            C            E
e|----0--0--0--0---1--1--1--1---0--0--0--0---0--0--0--0---|
B|----1--1--1--1---1--1--1--1---1--1--1--1---0--0--0--0---|
G|--------------------------------------------------------|
D|--------------------------------------------------------|
A|--0-------------------------3---------------------------|
E|---------------1-------------------------0--------------|

    Am           F            C            E
e|----0--0--0--0---1--1--1--1---0--0--0--0----------------|
B|----1--1--1--1---1--1--1--1---1--1--1--1----------------|
G|--------------------------------------------*pause*-----|
D|--------------------------------------------------------|
A|--0-------------------------3---------------------------|
E|---------------1----------------------------------------|

[Pre-chorus]
    Am              F               C               E
e|--0-----0-----0---1-----1-----1---0-----0-----0---0-----0-----0----|
B|----1-----1-----1---1-----1-----1---1-----1-----1---0-----0-----0--|
G|------2-----2---------2-----2---------0-----0---------1-----1------|
D|-------------------------------------------------------------------|
A|-------------------------------------------------------------------|
E|-------------------------------------------------------------------|

    Am              F               C           
e|--0-----0-----0---1-----1-----1---0-----0-----0--------------------|
B|----1-----1-----1---1-----1-----1---1-----1-----1-----*pause*------|
G|------2-----2---------2-----2---------0-----0----------------------|
D|-------------------------------------------------------------------|
A|-------------------------------------------------------------------|
E|-------------------------------------------------------------------|

[Chorus/Drop]
    Am            F                   C            E
e|-------0-----0--1--------1h3-----------0------0--0---------0h3-------------|
B|---------1---1--1--1---1-----1---1--------1---1--0---0---0-----0---0-------|
G|--0h2------2---------2---------2----0-------0----------1---------1---------|
D|---------------------------------------------------------------------------|x2
A|---------------------------------------------------------------------------|
E|---------------------------------------------------------------------------|

[Verse 2]
    Am           F            C            E
e|--------------------------------------------------------|
B|--------------------------------------------------------|
G|----------------------*pause*---------------------------|
D|---(you can play single down strokes of these chords)---|
A|--------------------------------------------------------|
E|--------------------------------------------------------|

    Am           F            C            E
e|----0--0--0--0---1--1--1--1---0--0--0--0----------------|
B|----1--1--1--1---1--1--1--1---1--1--1--1----------------|
G|--------------------------------------------*pause*-----|
D|--------------------------------------------------------|
A|--0-------------------------3---------------------------|
E|---------------1----------------------------------------|

[Pre-chorus]
    Am              F               C               E
e|--0-----0-----0---1-----1-----1---0-----0-----0---0-----0-----0----|
B|----1-----1-----1---1-----1-----1---1-----1-----1---0-----0-----0--|
G|------2-----2---------2-----2---------0-----0---------1-----1------|
D|-------------------------------------------------------------------|
A|-------------------------------------------------------------------|
E|-------------------------------------------------------------------|

    Am              F               C           
e|--0-----0-----0---1-----1-----1---0-----0-----0--------------------|
B|----1-----1-----1---1-----1-----1---1-----1-----1-----*pause*------|
G|------2-----2---------2-----2---------0-----0----------------------|
D|-------------------------------------------------------------------|
A|-------------------------------------------------------------------|
E|-------------------------------------------------------------------|

[Chorus/Drop]
    Am            F                   C            E
e|-------0-----0--1--------1h3-----------0------0--0---------0h3-------------|
B|---------1---1--1--1---1-----1---1--------1---1--0---0---0-----0---0-------|
G|--0h2------2---------2---------2----0-------0----------1---------1---------|
D|---------------------------------------------------------------------------|x3
A|---------------------------------------------------------------------------|
E|---------------------------------------------------------------------------|

    Am            F                   C            E
e|-------0-----0--1--------1h3-----------0------0--0-----------|
B|---------1---1--1--1---1-----1---1--------1---1--0--*pause*--|
G|--0h2------2---------2---------2----0-------0----------------|
D|-------------------------------------------------------------|
A|-------------------------------------------------------------|
E|-------------------------------------------------------------|

[Outro]
e|--0-----0-----0---1-----1-----1---0-----0-----0---0-----0-----0----|
B|----1-----1-----1---1-----1-----1---1-----1-----1---0-----0-----0--|
G|------2-----2---------2-----2---------0-----0---------1-----1------|
D|-------------------------------------------------------------------|x2
A|-------------------------------------------------------------------|
E|-------------------------------------------------------------------|

e|--0-----0-----0---1-------1h3-----------0-----0--0--------0h3--------|
B|----1-----1-----1---1---1-----1---1-------1---1--0--0---0-----0---0--|
G|------2-----2---------2---------2----0------0---------1---------1----|
D|---------------------------------------------------------------------|
A|---------------------------------------------------------------------|
E|---------------------------------------------------------------------|            
Submit corrections


        Wait lessons Hard to play? Try these video lessons and learn fast Wait lessons
        
↑ Back to top | Tablatures and chords for acoustic guitar and electric guitar, ukulele, drums are parodies/interpretations of the original songs. You may use it for private study, scholarship, research or language learning purposes only