Home » B » British India »

British India - Wrong Direction Chords

Artists:  A B C D E F G H I J K L M N O P Q R S T U V W X Y Z # 

Wrong Direction Chords

(ver. 1) Click to play this song!
British India
INTRO:

Ebm 
Ooo-ooo-ooo-oo
Ebm 
Ooo-ooo-ooo-oo
 B
Ooo-ooo-ooo-oo
 B 
Ooo-ooo-ooo-oo
 F#              F#
Ooo-ooo-ooo-oo  Ooo-ooo-ooo-oo
 F#              F#
Ooo-ooo-ooo-oo  Ooo-ooo-ooo-oo


Ebm 
Ooo-ooo-ooo-oo
Ebm 
Ooo-ooo-ooo-oo
 B
Ooo-ooo-ooo-oo
 B 
Ooo-ooo-ooo-oo
 F#              F#
Ooo-ooo-ooo-oo  Ooo-ooo-ooo-oo
 F#              F#
Ooo-ooo-ooo-oo  Ooo-ooo-ooo-oo


VERSE:
B
So far in the wrong direction,
 B                                   F#
What made it so easy to change your mind?

  GUITAR 2:
E ----------------------------------------------------------
B --12-11-9-11-----12-11-9-11-----12-11-9-11-----12-11-9----
G -------------------------------------------------------11-
D ----------------------------------------------------------
A ----------------------------------------------------------
E ----------------------------------------------------------


B
So long, and I won't surrender
 B                                          F#
I've gotta get back while the sun's still shines

  GUITAR 2:
E ----------------------------------------------------------
B --12-11-9-11-----12-11-9-11-----12-11-9-11-----12-11-9----
G -------------------------------------------------------11-
D ----------------------------------------------------------
A ----------------------------------------------------------
E ----------------------------------------------------------


CHORUS:
Ebm
So much time in the
  B
Wrong direction
 F#
How much longer 

'Til I
 F#
Can forget you?


VERSE:
  B
Tried once, and now you're the expert
  B                                   F#
Tried once and it's so hard to let it go

  GUITAR 2:
E ----------------------------------------------------------
B --12-11-9-11-----12-11-9-11-----12-11-9-11-----12-11-9----
G -------------------------------------------------------11-
D ----------------------------------------------------------
A ----------------------------------------------------------
E ----------------------------------------------------------

 B
You need to ask but you know the answer
 B                                    F#
You ask but you know that I know you know

  GUITAR 2:
E ----------------------------------------------------------
B --12-11-9-11-----12-11-9-11-----12-11-9-11-----12-11-9----
G -------------------------------------------------------11-
D ----------------------------------------------------------
A ----------------------------------------------------------
E ----------------------------------------------------------


CHORUS:
Ebm
So much time in the
  B
Wrong direction
 F#
How much longer 

'Til I
 F#
Can forget you?


CHORUS:
Ebm
So much time and I
  B
Won't surrender
 F#
How much longer 

'Til I
 F#
Can forget you?


INSTRUMENTAL/SOLO:
B  B  F#  F#
B  B  F#  F#
B  B  F#  F#
B  B  F#  F#


VERSE:
  B
Still better than these pretenders
  B                                 F#
Still better than all of the other ends

  GUITAR 2:
E ----------------------------------------------------------
B --12-11-9-11-----12-11-9-11-----12-11-9-11-----12-11-9----
G -------------------------------------------------------11-
D ----------------------------------------------------------
A ----------------------------------------------------------
E ----------------------------------------------------------

 B
And this time I will not surrender
 B                                 F#
This time I forgive but I won't forget

  GUITAR 2:
E ----------------------------------------------------------
B --12-11-9-11-----12-11-9-11-----12-11-9-11-----12-11-9----
G -------------------------------------------------------11-
D ----------------------------------------------------------
A ----------------------------------------------------------
E ----------------------------------------------------------


CHORUS:
Ebm
So much time in the
  B
Wrong direction
 F#
How much longer 

'Til I
 F#
Can forget you?


CHORUS:
Ebm
So much time and I
  B
Won't surrender
 F#
How much longer 

'Til I
 F#
Can forget you?


INSTRUMENTAL/SOLO:
B  B  F#  F#
B  B  F#  F#
B  B  F#  F#
B  B  F#  F#


OUTRO:
Ebm 
Ooo-ooo-ooo-oo
 
Ooo-ooo-ooo-oo
 B
Ooo-ooo-ooo-oo
  
Ooo-ooo-ooo-oo
 F#              
Ooo-ooo-ooo-oo  Ooo-ooo-ooo-oo
                               F#
Ooo-ooo-ooo-oo  Ooo-ooo-ooo-oo




            
Submit corrections

↑ Back to top | Tablatures and chords for acoustic guitar and electric guitar, ukulele, drums are parodies/interpretations of the original songs. You may use it for private study, scholarship, research or language learning purposes only