Home » B » British India »

British India - I Can Make You Love Me Chords

Artists:  A B C D E F G H I J K L M N O P Q R S T U V W X Y Z # 

I Can Make You Love Me Chords

(ver. 1) Click to play this song!
British India
Chords used:

   Bbm     G#     F#     D#m
e|--1------4------2------6------|
B|--2------4------2------7------|
G|--3------5------3------8------|
D|--3------6------4------8------|
A|--1------6------4------6------|
E|--1------4------2------6------|

Intro (from JoshuAAR's tab, thanks mate):

   Bbm              G#              F#
e|-----------------------------------------------------------------------------|
B|-----------------------------------------------------------------------------|
G|---6---6---6---6---5---5---5---5---3---3---3---3---3---3---3---3-------------|
D|-----------------------------------------------------------------------------|
A|-----------------------------------------------------------------------------|
E|--6---6---6---6---4---4---4---4---2---2---2---2---2---2---2---2--------------|  x3


Verse:

Bbm       G#                F#  
If you're reading this then that means that I am dead

Bbm          G#                  F#
What was the last thing that you told me?

Bbm          G#         F#
The night is over but I still have a place to go

Bbm      G#            F#    
No one else but I will be there



e|-----------------------------------------------------------------------------|
B|--4/6----6/9----6\4~~~\2-------4/6----6/9----6\4~~~\2------------------------|
G|-----------------------------------------------------------------------------|
D|-----------------------------------------------------------------------------|
A|-----------------------------------------------------------------------------|
E|-----------------------------------------------------------------------------|


Bbm     G#               F#
Walking by myself with a funeral in my head

Bbm           G#                F#
I hope you're happy what you're doing

Bbm      G#                    F#
You know how that they say you can't help but love the dead

Bbm      G#              F#
That's exactly where i'm heading

    Bbm   G#       F#
And I can make you love me

    Bbm   G#       F#
And I can make you love me


|D#m |F# |D#m |F# |D#m |D#m |F# |F# |

|Bbm |G# |F# | x2


          Bbm                     G#
You wanna fight fight fight fight fire with fire

             F#
You're gonna burn down

             Bbm               G#
You're gonna fall in love with my work a lot

             F#
You're gonna hate the way you left me behind


    Bbm   G#       F#
And I can make you love me

    Bbm   G#       F#
And I can make you love me


|Bbm |G# |F# | x4


    Bbm   G#       F#
And I can make you love me

    Bbm   G#       F#
And I can make you love me


Bbm   G#   F#
Ooooh oooh oooh

Bbm   G#   F#
Ooooh oooh oooh

|Bbm |G# |F# | x2, end on F#.            
Submit corrections

↑ Back to top | Tablatures and chords for acoustic guitar and electric guitar, ukulele, drums are parodies/interpretations of the original songs. You may use it for private study, scholarship, research or language learning purposes only