Home » B » Brighten »

Brighten - Easy To Fall In Love Tabs

Artists:  A B C D E F G H I J K L M N O P Q R S T U V W X Y Z # 

Easy To Fall In Love Tabs

(ver. 2) Click to play this song!
Brighten
Tuning: Capo 2, standard

Intro: Lead
e|---------------------------------------------------------------------------|
B|---------------------------------------------------------------------------|
G|--22222/13-11-8-11-9-8------------22222/13-11-8-11-9-8---------------------|
D|-----------------------11-13\4\2~---------------------11-13-11\2~----------|
A|---------------------------------------------------------------------------|
E|---------------------------------------------------------------------------|

Intro: Rhythm
e|---------------------------------------------------------------------------|
B|-----------------------------2---------------------------------------------|
G|--6--------5--------2--------4--------6--------5--------2--------2---------|
D|--7--------6--------2--------4--------7--------6--------2--------4---------|
A|--5--------7--------------------------5--------7-----------------4---------|
E|-----------x-----------------------------------x---------------------------|

Verse:
e|----------------------------------|----------------------------------------|
B|--2-------------------------------|----2-----------------------------------|
G|--4--------2--------1--------2----|----4--------2--------1--------2--------|
D|--4--------2--------2--------4----|----4--------2--------2--------4--------|
A|--------------------2--------4----|----------------------2--------4--------|
E|----------------------------------|-------------------------------3--------|
Repeat first part x3 end verse with second part
"You look like the afternoon when you wake at six in the morning..."

Chorus:
e|---------------------------------------------------------------------------|
B|-----------------------------2---------------------------------------------|
G|--6--------5--------2--------4--------6--------5--------2--------2---------|
D|--7--------6--------2--------4--------7--------6--------2--------4---------|
A|--5--------7--------------------------5--------7-----------------4---------|
E|-----------x-----------------------------------x---------------------------|
"Everything you do makes it easy to fall in love with you, now, now..."

e|---------------------------------------------------------------------------|
B|-----------------------------2-----------------2---------------------------|
G|--6--------5--------2--------4--------2--------2--------1--------2---------|
D|--7--------6--------2--------4--------2-----------------2--------4---------|
A|--5--------7--------------------------------------------2--------4---------|
E|-----------x---------------------------------------------------------------|
"Everything you do, I just can't seem to get over you, now, now..."

Post-Chorus (Pick through):
e|---------------------------------------------------------------------------|
B|-----------------------------2---------------------------------------------|
G|--6--------5--------2--------4---------------------------------------------|
D|--7--------6--------2--------4---------------------------------------------|
A|--5--------7---------------------------------------------------------------|
E|-----------x---------------------------------------------------------------|

Verse:
e|----------------------------------|----------------------------------------|
B|--2-------------------------------|----2-----------------------------------|
G|--4--------2--------1--------2----|----4--------2--------1--------2--------|
D|--4--------2--------2--------4----|----4--------2--------2--------4--------|
A|--------------------2--------4----|----------------------2--------4--------|
E|----------------------------------|-------------------------------3--------|
Repeat first part x3 end verse with second part
"I love when she writes for me, and she doesn't even play the piano..."

Pre-Chorus:
e|---------------------------------------------------------------------------|
B|---------------------------------------------------------------------------|
G|--2--------4--------3--------1---------------------------------------------|
D|--2--------4--------4--------2---------------------------------------------|
A|-----------2--------4--------2---------------------------------------------|
E|--------------------2------------------------------------------------------|
"So tell me now, tell me how I got so lucky..."

Chorus:
e|---------------------------------------------------------------------------|
B|-----------------------------2---------------------------------------------|
G|--6--------5--------2--------4--------6--------5--------2--------2---------|
D|--7--------6--------2--------4--------7--------6--------2--------4---------|
A|--5--------7--------------------------5--------7-----------------4---------|
E|-----------x-----------------------------------x---------------------------|
"Everything you do makes it easy to fall in love with you, now, now..."

e|---------------------------------------------------------------------------|
B|-----------------------------2-----------------2---------------------------|
G|--6--------5--------2--------4--------2--------2--------1--------2---------|
D|--7--------6--------2--------4--------2-----------------2--------4---------|
A|--5--------7--------------------------------------------2--------4---------|
E|-----------x---------------------------------------------------------------|
"Everything you do, I just can't seem to get over you, now, now..."

Bridge:
e|---------------------------------------------------------------------------|
B|---------------------------------------------------------------------------|
G|--2--------4--------3--------1--------2--------4--------3--------3---------|
D|--2--------4--------4--------2--------2--------4--------4--------4---------|
A|-----------2--------4--------2-----------------2--------4--------4---------|
E|--------------------2-----------------------------------2--------2---------|
"Don't think twice. Don't ask why..."

Chorus/Ending:
e|---------------------------------------------------------------------------|
B|-----------------------------2---------------------------------------------|
G|--6--------5--------2--------4--------6--------5--------2--------2---------|
D|--7--------6--------2--------4--------7--------6--------2--------4---------|
A|--5--------7--------------------------5--------7-----------------4---------|
E|-----------x-----------------------------------x---------------------------|
"Everything you do makes it easy to fall in love with you, now, now..."

e|---------------------------------------------------------------------------|
B|-----------------------------2-----------------2---------------------------|
G|--6--------5--------2--------4--------2--------2--------1--------2~--------|
D|--7--------6--------2--------4--------2-----------------2--------4~--------|
A|--5--------7--------------------------------------------2--------4~--------|
E|-----------x---------------------------------------------------------------|
"Everything you do, I just can't seem to get over you, now, now..."            
Submit corrections

↑ Back to top | Tablatures and chords for acoustic guitar and electric guitar, ukulele, drums are parodies/interpretations of the original songs. You may use it for private study, scholarship, research or language learning purposes only