» » »

Briggs - Bored Teenager Bass

Artists:  A B C D E F G H I J K L M N O P Q R S T U V W X Y Z # 

Bored Teenager Bass

(ver. 1) Click to play this song!
Briggs
 Rating:
4.3/5 (12 votes)

 Bored Teenager lessons Tabs too difficult? Try these video lessons and learn fast
 
                [Intro]
G|---------------------------------------------------------------------------|
D|--22--223235~--22--223230~--22--223235~-33333333-555555--------------------|
A|33--33-------33--33-------33--33-------------------------------------------|
E|---------------------------------------------------------------------------|

[Verse]
G|------------------------------00440044------------------------------00440044|
D|------3(×14)53------------------------------3(×14)53------------------------|  ×2
A|3(×16)--------3(×7)-------------------3(×16)--------3(×7)-------------------|
E|-------------------5(×7)-3(×7)---------------------------5(×7)-3(×7)--------|

[Pre-Chorus]
G|-------------------------------------------|
D|-----3(×7)-----------------3(×7)-5(×6)-457~|
A|--------------3(×4)21----------------------|
E|5(×7)----3(×7)--------5(×7)----------------|

[Chorus]
G|-----------------------------------------------|
D|------2(×7)-3(×7)-5(×7)--------3(×7)-----------|  ×2
A|3-3-3------------------3-3-3-3-----------------|
E|------------------------------------5(×7)-3(×7)|

[Instrumental]
G|---------------------------------------------------------------------------|
D|--22--223235~--22--223230~--22--223235~-33333333-555555--------------------|
A|33--33-------33--33-------33--33-------------------------------------------|
E|---------------------------------------------------------------------------|

[Verse]
G|------------------------------00440044------------------------------00440044|
D|------3(×14)53------------------------------3(×14)53------------------------|  ×2
A|3(×16)--------3(×7)-------------------3(×16)--------3(×7)-------------------|
E|-------------------5(×7)-3(×7)---------------------------5(×7)-3(×7)--------|

[Pre-Chorus]
G|-------------------------------------------|
D|-----3(×7)-----------------3(×7)-5(×6)-457~|
A|--------------3(×4)21----------------------|
E|5(×7)----3(×7)--------5(×7)----------------|

[Chorus]
G|-----------------------------------------------|
D|------2(×7)-3(×7)-5(×7)--------3(×7)-----------|
A|3-3-3------------------3-3-3-3-----------------|
E|------------------------------------5(×7)-3(×7)|

[Instrumental]
G|---------------------------------------------------------------------------|
D|--22--223235~--22--223230~--22--223235~-33333333-555555--------------------|
A|33--33-------33--33-------33--33-------------------------------------------|
E|---------------------------------------------------------------------------|

[Bridge]
G|--stay-in----whoa--whoa------|  |----------------------|
D|-----------------oh----oh(×4)|  |----------------------|  X2
A|---------line----------------|  |3(×8)-----------------|
E|-----------------------------|  |-----3(×8)-1(×8)-3(×8)|

[Verse]
G|------------------------------00440044------------------------------00440044|
D|------3(×14)53------------------------------3(×14)53------------------------|  ×2
A|3(×16)--------3(×7)-------------------3(×16)--------3(×7)-------------------|
E|-------------------5(×7)-3(×7)---------------------------5(×7)-3(×7)--------|

[Pre-Chorus]
G|-------------------------------------------|
D|-----3(×7)-----------------3(×7)-5(×6)-457~|
A|--------------3(×4)21----------------------|
E|5(×7)----3(×7)--------5(×7)----------------|

[Outro](modified intro basically)
G|---------------------------------------------------------------------|2nd~|-------------|¦
D|--22--22-33225555--22--22-33220000---22--22-33225555-3322002233220000|time|332200223-5--|¦
A|33--33-----------33--33------------33--33----------------------------|end~|------------3|¦
E|---------------------------------------------------------------------|on~~|-------------|¦

            
Submit corrections


        Bored Teenager lessons Hard to play? Try these video lessons and learn fast Bored Teenager lessons
        
↑ Back to top | Tablatures and chords for acoustic guitar and electric guitar, ukulele, drums are parodies/interpretations of the original songs. You may use it for private study, scholarship, research or language learning purposes only