Home » B » Brenton Brown »

Brenton Brown - Everlasting God Tabs

Artists:  A B C D E F G H I J K L M N O P Q R S T U V W X Y Z # 

Everlasting God Tabs

(ver. 2) Click to play this song!
Brenton Brown
e|---------------------------------------------------------------------------|
B|---------------------------------------------------------------------------|
G|---------------------------------------------------------------------------|
D|-0---------3----3---0--0--1----1--0--------------0----1---1-0--------------|
A|-1---------5----5---1--1--3----3--1--3---1---3---1----3---3-1---3---1------|
E|-------------------------------------5---1---5------------------5---1------|
   Strength will rise as we wait upon the Lord we will wait upon the Lord (repeat) 
e|---------------------------------------------------------------------------|
B|---------------------------------------------------------------------------|
G|------0-------0----2-3-2-------0---------0-----2-3-2-2-3-------------------|
D|--3-------3--------0-0-0---3--------3----------0-0-0-0-0-------------------|
A|--1---1---1---1------------1---1----1----1---------------------------------|
E|---------------------------------------------------------------------------|
   our God You rain forever our hope our strong deliverer 
e|---------------------------------------------------------------------------|
B|----------1--1--3--3----------1--1--3--3----------1--1---3----3------------|
G|-3----3---------3--3------0---------3--3------0----------3----3--------0---|
D|-3----3---3--3--------3---1---3--3--------3---1---3--3-------------3---1---|
A|----------------------0-------------------0------------------------3-------|
E|---------------------------------------------------------------------------|
   You are the everlasting God the everlasting God You do not faint you won't 
e|---------------------------------------------------------------------------|
B|---------1--------------1-1-3---3-----------1----1--3-----3------------1---|
G|--2----3---3---3----3-------3---3-------0-----------3-----3-------0--------|
D|--0----0-0-0---0----0---3-3---------3---1---3----3------------3---1----3---|
A|------------------------------------0-------------------------0------------|
E|---------------------------------------------------------------------------|
   grow weary You're the defender of the weak You comfort those in need You
e|---------------------------------------------------------------------------|
B|--1---3--3------------------1----------------------------------------------|
G|------3--3------0------2--3---3--------------------------------------------|
D|--3---------3---1------3--3-3-3--------------------------------------------|
A|------------3--------------------------------------------------------------|
E|---------------------------------------------------------------------------|
   lift us up on wings like eagles             
Submit corrections

↑ Back to top | Tablatures and chords for acoustic guitar and electric guitar, ukulele, drums are parodies/interpretations of the original songs. You may use it for private study, scholarship, research or language learning purposes only