Home » B » Breeders »

Breeders - Cannonball Bass

Artists:  A B C D E F G H I J K L M N O P Q R S T U V W X Y Z # 

Cannonball Bass

(ver. 1) Click to play this song!
Breeders
 Rating:
4.3/5 (29 votes)
                INTRO (Starting w/ rim clicks @ approx. 0:17):

G |---------------------------------|---------------------------------|
D |---------------------------------|---------------------------------|
A |---------------------------------|---------------------------------|
E |-r-------------------------------|-r---------------------------7-/-|
    1   &   2   &   3   &   4   &     1   &   2   &   3   &   4   &

    s       s                            s       s
G |------------------------------------|------------------------------------|
D |------------------------------------|------------------------------------|
A |-12-12---12-12--r-------------------|-12-12---12-12--r-------------------|
E |--------------------------------7-/-|--------------------------------7-/-|
    1    &     2   &   3   &   4   &     1     &    2   &   3   &   4   &

    s       s        s s                 s       s        s s
G |------------------------------------|------------------------------------|
D |------------------------------------|------------------------------------|
A |-13-13---13-13--\-6-6-r-6---6-------|-13-13---13-13--\-6-6-r-6---6-------|
E |--------------------------------7-/-|--------------------------------7-/-|
    1     &    2   &   3   &   4   &     1     &    2   &   3   &   4   &

    s       s        s s
G |------------------------------------|---------------------------------|
D |------------------------------------|---------------------------------|
A |-13-13---13-13--\-6-6-r-6---6-------|-13--r---------------------------|
E |--------------------------------7-/-|-----------------------------7-/-|
    1     &    2   &   3   &   4   &     1   &   2   &   3   &   4   &


PRE—VERSE (x3):
    s       s        s s                 s       s        s s
G |------------------------------------|------------------------------------|
D |------------------------------------|------------------------------------|
A |-13-13---13-13--\-6-6-r-6---6-------|-13-13---13-13--\-6-6-r-6---6-------|
E |--------------------------------7-/-|--------------------------------7-/-|
    1     &    2   &   3   &   4   &     1   &   2   &   3   &   4   &


VERSE 1:
                ( x3 )
    s       s        s s
G |------------------------------------||---------------------------------|
D |------------------------------------||---------------------------------|
A |-13-13---13-13--\-6-6-r-6---6-------||-13--r---------------------------|
E |--------------------------------7-/-||-----------------------------7-/-|
    1     &    2   &   3   &   4   &      1   &   2   &   3   &   4   &


PRE—VERSE (x5):
    s       s        s s
G |------------------------------------|
D |------------------------------------|
A |-13-13---13-13--\-6-6-r-6---6-------|
E |--------------------------------7-/-|
    1     &    2   &   3   &   4   &


VERSE 2 (x4):
    s       s        s s
G |------------------------------------|
D |------------------------------------|
A |-13-13---13-13--\-6-6-r-6---6-------|
E |--------------------------------7-/-|
    1     &    2   &   3   &   4   &


PRE-CHORUS:
               ( x3 )
    s       s        s s    s             s       s        s s
G |------------------------------------||------------------------------------|
D |------------------------------------||------------------------------------|
A |-13-13---13-13--\-6-6-r-6---6-------||-13-13---13-13--\-6-6-r-------------|
E |--------------------------------7-/-||------------------------------------|
    1     &    2   &   3   &   4   &      1     &    2   &   3   &   4   &


CHORUS 1:
                                      s  s
G |---------------------------------|------------------------------------|
D |---------------------------------|------------------------------------|
A |---------------------------------|------------------------------------|
E |-6---6---6---6-/-11--11--11--11/-|-16-16-16---16--r-------------------|
    1   &   2   &   3   &   4   &     1     &    2   &   3   &   4   &
                                      s  s
G |---------------------------------|------------------------------------|
D |---------------------------------|------------------------------------|
A |---------------------------------|------------------------------------|
E |-6---6---6---6-/-11--11--11--11/-|-16-16-16---16--r-------------------|
    1   &   2   &   3   &   4   &     1     &    2   &   3   &   4   &

                                      s  s            s s s s s s s s s s
G |---------------------------------|-------------------------------------|
D |---------------------------------|-------------------------------------|
A |---------------------------------|-------------------------------------|
E |-6---6---6---6-/-11--11--11--11/-|-16-16-16---16-\-6-6-6-6-6-6-6-6-6-6-|
    1   &   2   &   3   &   4   &     1     &    2    &   3   &   4   &

                                      s  s            s s s s s s s s
G |---------------------------------|-------------------------------------|
D |---------------------------------|-------------------------------------|
A |---------------------------------|-------------------------------------|
E |-6---6---6---6-/-11--11--11--11/-|-16-16-16---16-\-6-6-6-6-6-6-6-6-7-/-|
    1   &   2   &   3   &   4   &     1     &    2    &   3   &   4   &

 
PRE—VERSE:
                 ( x3 )
    s       s        s s
G |------------------------------------||---------------------------------|
D |------------------------------------||---------------------------------|
A |-13-13---13-13--\-6-6-r-6---6-------||-13--r---------------------------|
E |--------------------------------7-/-||-----------------------------7-/-|
    1     &    2   &   3   &   4   &      1   &   2   &   3   &   4   &


VERSE 3:
                 ( x9 )
    s       s        s s
G |------------------------------------||---------------------------------|
D |------------------------------------||---------------------------------|
A |-13-13---13-13--\-6-6-r-6---6-------||-13--r---------------------------|
E |--------------------------------7-/-||---------------------------------|
    1     &    2   &   3   &   4   &      1   &   2   &   3   &   4   &

   5/4
G |-----------------------------------------|
D |-----------------------------------------|
A |-----------------------------------------|
E |-r---------------------------------------|
    1   &   2   &   3   &   4   &   5   &


CHORUS 2:                     
   4/4                                s  s
G |---------------------------------|------------------------------------|
D |---------------------------------|------------------------------------|
A |---------------------------------|------------------------------------|
E |-6---6---6---6-/-11--11--11--11/-|-16-16-16---16--r-------------------|
    1   &   2   &   3   &   4   &     1     &    2   &   3   &   4   &

                                      s  s
G |---------------------------------|------------------------------------|
D |---------------------------------|------------------------------------|
A |---------------------------------|------------------------------------|
E |-6---6---6---6-/-11--11--11--11/-|-16-16-16---16--r-------------------|
    1   &   2   &   3   &   4   &     1     &    2   &   3   &   4   &

                                      s  s            s s s s s s s s s s
G |---------------------------------|-------------------------------------|
D |---------------------------------|-------------------------------------|
A |---------------------------------|-------------------------------------|
E |-6---6---6---6-/-11--11--11--11/-|-16-16-16---16-\-6-6-6-6-6-6-6-6-6-6-|
    1   &   2   &   3   &   4   &     1     &    2    &   3   &   4   &

                                      s  s            s s s s s s s s
G |---------------------------------|-------------------------------------|
D |---------------------------------|-------------------------------------|
A |---------------------------------|-------------------------------------|
E |-6---6---6---6-/-11--11--11--11/-|-16-16-16---16-\-6-6-6-6-6-6-6-6-7-/-|
    1   &   2   &   3   &   4   &     1     &    2    &   3   &   4   &


VERSE 4:
                 ( x3 )
    s       s        s s
G |------------------------------------||---------------------------------|
D |------------------------------------||---------------------------------|
A |-13-13---13-13--\-6-6-r-6---6-------||-13--r---------------------------|
E |--------------------------------7-/-||-----------------------------7-/-|
    1     &    2   &   3   &   4   &      1   &   2   &   3   &   4   &

    s       s        s s                 s       s        s s
G |------------------------------------|------------------------------------|
D |------------------------------------|------------------------------------|
A |-13-13---13-13--\-6-6-r-6---6-------|-13-13---13-13--\-6-6-r-6---6-------|
E |--------------------------------7-/-|--------------------------------7-/-|
    1     &    2   &   3   &   4   &     1     &    2   &   3   &   4   &


VERSE 5 (x4):
    s       s        s s
G |------------------------------------|
D |------------------------------------|
A |-13-13---13-13--\-6-6-r-6---6-------|
E |--------------------------------7-/-|
    1     &    2   &   3   &   4   &


PRE-CHORUS:
                 ( x3 )
    s       s        s s                  s       s        s s
G |------------------------------------||------------------------------------|
D |------------------------------------||------------------------------------|
A |-13-13---13-13--\-6-6-r-6---6-------||-13-13---13-13--\-6-6-r-------------|
E |--------------------------------7-/-||------------------------------------|
    1     &    2   &   3   &   4   &      1     &    2   &   3   &   4   &


CHORUS 3:
   4/4                                s  s
G |---------------------------------|------------------------------------|
D |---------------------------------|------------------------------------|
A |---------------------------------|------------------------------------|
E |-6---6---6---6-/-11--11--11--11/-|-16-16-16---16--r-------------------|
    1   &   2   &   3   &   4   &     1     &    2   &   3   &   4   &

                                      s  s           s s s s s s s s s s
G |---------------------------------|------------------------------------|
D |---------------------------------|------------------------------------|
A |---------------------------------|------------------------------------|
E |-6---6---6---6-/-11--11--11--11/-|-16-16-16---16--r-------------------|
    1   &   2   &   3   &   4   &     1     &    2   &   3   &   4   &

                                      s  s            s s s s s s s s s s
G |---------------------------------|-------------------------------------|
D |---------------------------------|-------------------------------------|
A |---------------------------------|-------------------------------------|
E |-6---6---6---6-/-11--11--11--11/-|-16-16-16---16-\-6-6-6-6-6-6-6-6-6-6-|
    1   &   2   &   3   &   4   &     1     &    2    &   3   &   4   &

                                      s  s            s s s s s s s s
G |---------------------------------|-------------------------------------|
D |---------------------------------|-------------------------------------|
A |---------------------------------|-------------------------------------|
E |-6---6---6---6-/-11--11--11--11/-|-16-16-16---16-\-6-6-6-6-6-6-6-6-7-/-|
    1   &   2   &   3   &   4   &     1     &    2    &   3   &   4   &


OUTRO:
                 ( x7 )
    s       s        s s                  s       s        s s
G |------------------------------------||------------------------------------|
D |------------------------------------||------------------------------------|
A |-13-13---13-13--\-6-6-r-6---6-------||-13-13---13-13--\-6-6-r-------------|
E |--------------------------------7-/-||------------------------------------|
    1     &    2   &   3   &   4   &      1     &    2   &   3   &   4   &

            
Submit corrections

↑ Back to top | Tablatures and chords for acoustic guitar and electric guitar, ukulele, drums are parodies/interpretations of the original songs. You may use it for private study, scholarship, research or language learning purposes only