Home » B » Brandon Heath »

Brandon Heath - I'm Not Who I Was Tabs

Artists:  A B C D E F G H I J K L M N O P Q R S T U V W X Y Z # 

I'm Not Who I Was Tabs

(ver. 2) Click to play this song!
Brandon Heath
There is only 1 video tutorial, and this is where i made the tab from;


Here is the tab,

PS:capo 2 or 3 which ever1 u think sounds better,
also, take a look at the video, its fairly easy and feel free to fix this if im wrong, 
first one so i hope it helps anyone...

e--------*----------*---------|
B------5-*--5-----5-*--5------|
G------4-*--4-----4-*--4------|
D---0----*-----0----*---------|
A--------*----------*---------|
E--------*----------*---------|

e--------*----------*---------|
B------5-*--5-----5-*--5------|
G------0-*--0-----0-*--0------|
D--------*----------*---------|
A--0-----*-----0----*---------|
E--------*----------*---------|

e--------|
B--------|
G--------|
D-----0--|
A--04----|
E--------|

e--------*----------*---------|
B------5-*--5-----5-*--5------|
G------0-*--0-----0-*--0------|
D--------*----------*---------|
A--0-----*-----0----*---------|
E--------*----------*---------|

e--------|
B--------|
G--------|
D-----0--|
A--04----|
E--------|


e--------*----------*----------|
B------5-*--5-----5-*--5-------|
G------0-*--0-----0-*--0-------|
D--------*----------*----------|
A--4-----*-----4----*----------|
E--------*----------*----------|

e--------*----------*---------|
B------5-*--5-----5-*--5------|
G------4-*--4-----4-*--4------|
D--------*----------*---------|
A--------*----------*---------|
E--4-----*-----4----*---------|

e--------*----------*---------|
B------5-*--5-----5-*--5------|
G------0-*--0-----0-*--0------|
D--------*----------*---------|
A--------*----------*---------|
E---5----*-----5----*---------|

e--------*----------*---------|
B------5-*--5-----5-*--5------|
G------0-*--0-----0-*--0------|
D--------*----------*---------|
A--5-----*-----5----*---------|
E--------*----------*---------|

e---4----|
B---5----|
G--------|
D--------|
A---5----|
E--------|

the * is when u tap/hit the strings w/ ur hand/fingers/face wht ever u like to use the most...

made by ticotaz,

Note:
For this part;

e--------|
B--------|
G--------|
D-----0--|
A--04----|
E--------|


take a look at the video, at time, 1:10 - 1:16

idk wht simbl to put for that, so take a look. hope this helps anyone !!

GBU guys
            
Submit corrections

↑ Back to top | Tablatures and chords for acoustic guitar and electric guitar, ukulele, drums are parodies/interpretations of the original songs. You may use it for private study, scholarship, research or language learning purposes only