Home » B » Bracket »

Bracket - Trailer Park Bass

Artists:  A B C D E F G H I J K L M N O P Q R S T U V W X Y Z # 

Trailer Park Bass
Version #1
Bracket


Copy URL
Intro

G|----------------------------------------------------|
D|----------------------------------------------------|
A|----------------------------------------------------|
E|---4>----x-----4>---x------4>----x------4>------x---|

verse

G|----------------------------------------------------------|
D|----------------------------------------------------------|
A|----------44444-----66----33-4444444444-------66666-------|  2x
E|---44444---------44----11---------------66666-------------|

Chorus

G|-----------------------------------------------------------|
D|-----------------------------------------------------------|
A|---4444444444----------------33-----3h4p3----33----3h4p3---| 2x except last chorus
E|--------------6666666666--44----22--------44----22---------|

solo

G|-------------------------------------------------|
D|---------3-2---3-2--------------3-2---3-2--------|
A|-----2-3-----3-----3-2------2-3-----3-----3-2----| 4x
E|---3-------------------3--3-------------------33-|

second time on last chorus

G|------------------------------------------------------|
D|------------------------------------------------------|
A|---4444444444----------------33-----3h4p3----33-------|
E|--------------6666666666--44----22--------44----2-----|


intro ,verse, chorus, verse, chorus, solo, verse, chorus.
            
Submit corrections

↑ Back to top | Tablatures and chords for acoustic guitar and electric guitar, ukulele, drums are parodies/interpretations of the original songs. You may use it for private study, scholarship, research or language learning purposes only