Home » B » Bracket »

Bracket - Everyone Is Telling Me Ill Never Win If Tabs

Artists:  A B C D E F G H I J K L M N O P Q R S T U V W X Y Z # 

Everyone Is Telling Me Ill Never Win If Tabs

(Version #1)
Bracket
Bracket - Everyone Is Telling Me I'll Never Win If I Fall In Love With The Girl From Marin


Intro After Bass Riff
e|-----------------------------
B|-----------------------------
G|-3/-4-4----------------------
D|-3/-4-4----------------------
A|-1/-2-2----------------------
E|-----------------------------

Verse
e|-------------------------------------------
B|-------------------------------------------
G|-4-4-4-4-----------------4-4-4-4-----------
D|-4-4-4-4-4-4-4-4-5-5-5-5-4-4-4-4-----------
A|-2-2-2-2-4-4-4-4-5-5-5-5-2-2-2-2-----------
E|---------2-2-2-2-3-3-3-3-------------------

Pre-Chorus
e|-------------------------------------------
B|-------------------------------------------
G|-------------------------4-4-4-4-----------
D|-2-2-2-2-4-4-4-4-5-5-5-5-4-4-4-4-----------
A|-2-2-2-2-4-4-4-4-5-5-5-5-2-2-2-2-----------
E|-0-0-0-0-2-2-2-2-3-3-3-3-------------------

Chorus
e|-------------------------------------------------------
B|-------------------------------------------------------
G|-6-6-6-6-6-6-6-6-----------------4-4-4-4---------------
D|-6-6-6-6-6-6-6-6-2-2-2-2-2-2-2-2-4-4-4-4-4-4-4-4-------
A|-4-4-4-4-4-4-4-4-2-2-2-2-2-2-2-2-2-2-2-2-4-4-4-4-------
E|-----------------0-0-0-0-0-0-0-0---------2-2-2-2-------

e|-------------------------------------------------------
B|-------------------------------------------------------
G|-6-6-6-6-6-6-6-6-----------------4-4-4-4---------2-----
D|-6-6-6-6-6-6-6-6-2-2-2-2-2-2-2-2-4-4-4-4-4-4-4-4-2-----
A|-4-4-4-4-4-4-4-4-2-2-2-2-2-2-2-2-2-2-2-2-4-4-4-4-0-----
E|-----------------0-0-0-0-0-0-0-0---------2-2-2-2-------

Post-Chorus
e|-------------------------------------------------------------------
B|-------------------------------------------------------------------
G|-4-4-4-4-----------------7-7-7-7---------8-8-8-8-9-9-9-9-----------
D|-4-4-4-4-3-3-3-3-4-4-4-4-7-7-7-7-7-7-7-7-8-8-8-8-9-9-9-9-8-8-8-8---
A|-2-2-2-2-3-3-3-3-4-4-4-4-5-5-5-5-7-7-7-7-6-6-6-6-7-7-7-7-8-8-8-8---
E|---------1-1-1-1-2-2-2-2---------5-5-5-5-----------------6-6-6-6---

e|-----------------------------------------------------------------------
B|-----------------------------------------------------------------------
G|-4-4-4-4-----------------7-7-7-7---------8-8-8-8-9-9-9-9---------4-4-4-
D|-4-4-4-4-3-3-3-3-4-4-4-4-7-7-7-7-7-7-7-7-8-8-8-8-9-9-9-9-8-8-8-8-4-4-4-
A|-2-2-2-2-3-3-3-3-4-4-4-4-5-5-5-5-7-7-7-7-6-6-6-6-7-7-7-7-8-8-8-8-2-2-2-
E|---------1-1-1-1-2-2-2-2---------5-5-5-5-----------------6-6-6-6-------

Bridge
e|-------------------------------------------
B|-------------------------------------------
G|-4-4-4-4-4-4-4-4---------------------------
D|-4-4-4-4-4-4-4-4-6-6-6-6-2-2-2-2-----------
A|-2-2-2-2-2-2-2-2-6-6-6-6-2-2-2-2-----------
E|-----------------4-4-4-4-0-0-0-0-----------
            
Submit corrections

↑ Back to top | Tablatures and chords for acoustic guitar and electric guitar, ukulele, drums are parodies/interpretations of the original songs. You may use it for private study, scholarship, research or language learning purposes only