Home » B » Bracket »

Bracket - Cool Aide Tabs

Artists:  A B C D E F G H I J K L M N O P Q R S T U V W X Y Z # 

Cool Aide Tabs

(Version #1)
Bracket
Bracket - Cool Aide


Tuned 1/2 Step Down

Intro
eb|----------------------------------------------------------------------
Bb|----------------------------------------------------------------------
Gb|-5-5-5-5-9-9-9-9-8-8-8-8---------7-7-7-7------------------------------
Db|-5-5-5-5-9-9-9-9-8-8-8-8-7-7-7-7-7-7-7-7-3-3-3-3-4-4-4-4-5-5-5-5------  x 2
Ab|-3-3-3-3-7-7-7-7-6-6-6-6-7-7-7-7-5-5-5-5-3-3-3-3-4-4-4-4-5-5-5-5------
Eb|-------------------------5-5-5-5---------1-1-1-1-2-2-2-2-3-3-3-3------

Verse
eb|-------------------------------------------------------------------------------
Bb|-------------------------------------------------------------------------------
Gb|-5-5-5-5-9-9-9-9-8-8-8-8---------------------5-5-5-5-5-5-5-5-5-5-5-5-5-5-5-5---
Db|-5-5-5-5-9-9-9-9-8-8-8-8-5---------3---------5-5-5-5-5-5-5-5-5-5-5-5-5-5-5-5---
Ab|-3-3-3-3-7-7-7-7-6-6-6-6-5---------3---------3-3-3-3-3-3-3-3-3-3-3-3-3-3-3-3---
Eb|-------------------------3---------1-------------------------------------------

eb|-----------------------------------------------------------------
Bb|-----------------------------------------------------------------
Gb|----------------------5-5-5-5-5-5-5-5-5-5-5-5-5-5-5-5------------
Db|-5---------3----------5-5-5-5-5-5-5-5-5-5-5-5-5-5-5-5------------
Ab|-5---------3----------3-3-3-3-3-3-3-3-3-3-3-3-3-3-3-3------------
Eb|-3---------1-----------------------------------------------------

Pre-Chorus
eb|--------------------------------------------------------------------
Bb|--------------------------------------------------------------------
Gb|---------9-9-9-9-4-4-4-4-5-5-5-5---------7-7-7-7-5-5-5-5-5-5-5-5----
Db|-5-5-5-5-9-9-9-9-4-4-4-4-5-5-5-5-5-5-5-5-7-7-7-7-5-5-5-5-5-5-5-5----
Ab|-5-5-5-5-7-7-7-7-2-2-2-2-3-3-3-3-5-5-5-5-5-5-5-5-3-3-3-3-3-3-3-3----
Eb|-3-3-3-3-------------------------3-3-3-3----------------------------

Chorus                                                    Variation on verses 2+3
eb|-----------------------------------------------        eb|--------------
Bb|-----------------------------------------------        Bb|--------------
Gb|-2-2-2-2-2-2-2-2-2-2-3-3-3-3-------------------        Gb|-2--3--5------
Db|-2-2-2-2-2-2-2-2-2-2-3-3-3-3-3-3-3-3-----------   x 2  Db|-2--3--5------
Ab|-0-0-0-0-0-0-0-0-0-0-1-1-1-1-3-3-3-3-----------        Ab|-0--1--3------
Eb|-----------------------------1-1-1-1-----------        Eb|--------------

eb|----------------------------------------------------------------------------
Bb|----------------------------------------------------------------------------
Gb|----------------------------------------------------------------------------
Db|-2-2-2-2-2-2-2-2-2-2-2-2-3-3-3-3-3-3-3-3-3-3-3-3-2-2-2-2-2-2-4-4-4-4-4-4----
Ab|-2-2-2-2-2-2-2-2-2-2-2-2-3-3-3-3-3-3-3-3-3-3-3-3-2-2-2-2-2-2-4-4-4-4-4-4----
Eb|-0-0-0-0-0-0-0-0-0-0-0-0-1-1-1-1-1-1-1-1-1-1-1-1-0-0-0-0-0-0-2-2-2-2-2-2----

Post-Chorus
eb|----------------------------------------------------------------------
Bb|----------------------------------------------------------------------
Gb|-5-5-5-5-9-9-9-9-8-8-8-8---------7-7-7-7------------------------------
Db|-5-5-5-5-9-9-9-9-8-8-8-8-7-7-7-7-7-7-7-7-10101010-11111111-12121212---  
Ab|-3-3-3-3-7-7-7-7-6-6-6-6-7-7-7-7-5-5-5-5-10101010-11111111-12121212---
Eb|-------------------------5-5-5-5---------8-8-8-8--9-9-9-9--10101010---

Verse x 1

Pre-Chorus x 1

Chorus pt.1 x 4

Chorus pt.2 x 1

Post-Chorus x 2

Bridge (Cherry-flavored.........)
eb|-----------------------------------------------
Bb|-----------------------------------------------
Gb|-3-3-3-3-3-3-3-3-3-3-3-3-3-3-3-3-3-3-3---------
Db|-3-3-3-3-3-3-3-3-3-3-3-3-3-3-3-3-3-3-3---------
Ab|-1-1-1-1-1-1-1-1-1-1-1-1-1-1-1-1-1-1-1---------
Eb|-----------------------------------------------
   |_____________________________________|
                  Palm Mute

Verse pt.2 x 2

Pre-Chorus x 1

Chorus pt.1 x 4

Chorus pt.2 x 1

Outro
eb|-------------------------------------------
Bb|-------------------------------------------
Gb|-5-5-5-5-9-9-9-9-8-8-8-8---------7-7-7-7---
Db|-5-5-5-5-9-9-9-9-8-8-8-8-7-7-7-7-7-7-7-7-3-   x 1
Ab|-3-3-3-3-7-7-7-7-6-6-6-6-7-7-7-7-5-5-5-5-3-
Eb|-------------------------5-5-5-5---------1-
            
Submit corrections

↑ Back to top | Tablatures and chords for acoustic guitar and electric guitar, ukulele, drums are parodies/interpretations of the original songs. You may use it for private study, scholarship, research or language learning purposes only