» » »

Boys Like Girls - Love Drunk Tabs

Artists:  A B C D E F G H I J K L M N O P Q R S T U V W X Y Z # 

Love Drunk Tabs

(ver. 1) Click to play this song!
Boys Like Girls
 Rating:
4/5 (4 votes)

 Love Drunk lessons Tabs too difficult? Try these video lessons and learn fast
 
                
LOVE DRUNK
As recorded by Boys Like Girls
(From the 2009 Album LOVE DRUNK)

	

Words and Music by Boys Like Girls

C5
x 3 5 5 x x
	
Ab5
6 6 6 x x x
	
Eb5
1 1 1 x x x
	
Bb5
8 8 8 x x x
D5
x 5 7 7 x x
	
F5
3 3 3 x x x
	
C5(type 2)
10 10 10 x x x
	
D5(type 2)
12 12 12 x x x

Gtr I (E A D G B E) - 'Clean'
Gtr II (D A D G B E) - 'Guitar 1'
Gtr III (D A D G B E) - 'Guitar 2'
Gtr IV (D A D G B E) - 'Vocals'
Gtr V (F# B E A C# F#) - 'Vocals High'

 Intro
  Q=152
 4/4
  Gtr I
  PM----------------------------------------------------------------------|
  S S S S S S S S S S S S  S   S   S   S    S S S S S S S S S S S S S S S S
|-----------------------------------------|---------------------------------|
|-4-4-4-4-4-4-4-4-4-4-4-4--4---4---4---4--|-4-4-4-4-4-4-4-4-4-4-4-4-4-4-4-4-|
|-----------------------------------------|---------------------------------|
|-------------------------(1)-(1)-(1)-(1)-|-1-1-1-1-1-1-1-1-1-1-1-1-1-1-1-1-|
|-----------------------------------------|---------------------------------|
|-----------------------------------------|---------------------------------|


  Eb5                                                     Bb5
  Gtr II
  W                                     +H                 H
  |                                      |                 |
  /                                      /                 /

  PM-------------------------------------------------------------------------
  S S S S  S S  S  S S S S S  S S S S    S S S S  S S S S  S S S S  S S S S
|-------------------------------------|-------------------------------------|
|-4-4-4-4--4-4--4--4-4-4-4-4--4-4-4-4-|--4-4-4-4--4-4-4-4--4-4-4-4--4-4-4-4-|
|-------------------------------------|-------------------------------------|
|-1-1-1-1--1-1--1--1-1-1-1-1--1-1-1-1-|--1-1-1-1--1-1-1-1--1-1-1-1--1-1-1-1-|
|-------------------------------------|-------------------------------------|
|-------------------------------------|-------------------------------------|
|
| Gtr III
| E   E    E    Q.            Q          Q        Q        Q        Q
|--------------11---------------------|-11----------------11----------------|
|-8h==9---11-----------------11-------|----------11----------------11-------|
|-------------------------------------|-------------------------------------|
|-------------------------------------|-------------------------------------|
|-------------------------------------|-------------------------------------|
|-------------------------------------|-------------------------------------|


  Ab5
  W                                     +W
  |                                      |
  /                                      /

 -------------------------------------------------------------------------|
  S S S S  S S  S  S S S S S  S S S S    S S S S  S S S S  S S S S  S S S S
|-------------------------------------|---------------------------------------|
|-4-4-4-4--4-4--4--4-4-4-4-4--4-4-4-4-|--4-4-4-4--4-4-4-4--4-4-4-4--4-4-4-4---|
|-------------------------------------|---------------------------------------|
|-1-1-1-1--1-1--1--1-1-1-1-1--1-1-1-1-|--1-1-1-1--1-1-1-1--1-1-1-1--1-1-1-1---|
|-------------------------------------|---------------------------------------|
|-------------------------------------|---------------------------------------|
|
| E   E    E    Q.            Q          Q        Q        Q        Q
|--------------11---------------------|-11----------------11------------------|
|-8h==9---11-----------------11-------|----------11----------------11---------|
|-------------------------------------|---------------------------------------|
|-------------------------------------|---------------------------------------|
|-------------------------------------|---------------------------------------|
|-------------------------------------|---------------------------------------|


  Eb5                                                     Bb5
  W                                     +H                 H
  |                                      |                 |
  /                                      /                 /

  PM-------------------------------------------------------------------------
  S S S S  S S  S  S S S S S  S S S S    S S S S  S S S S  S S S S  S S S S
|-------------------------------------|-------------------------------------|
|-4-4-4-4--4-4--4--4-4-4-4-4--4-4-4-4-|--4-4-4-4--4-4-4-4--4-4-4-4--4-4-4-4-|
|-------------------------------------|-------------------------------------|
|-1-1-1-1--1-1--1--1-1-1-1-1--1-1-1-1-|--1-1-1-1--1-1-1-1--1-1-1-1--1-1-1-1-|
|-------------------------------------|-------------------------------------|
|-------------------------------------|-------------------------------------|
|
| E   E    E    Q.            Q          Q        Q        Q        Q
|--------------11---------------------|-11----------------11----------------|
|-8h==9---11-----------------11-------|----------11----------------11-------|
|-------------------------------------|-------------------------------------|
|-------------------------------------|-------------------------------------|
|-------------------------------------|-------------------------------------|
|-------------------------------------|-------------------------------------|


  Ab5
  E   E    E    E    E   E    E   E      E   E    E   E    E   E    E   E
  |   |    |    |    |   |    |   |      |   |    |   |    |   |    |   |
  /   /    /    /    /   /    /   /      /   /    /   /    /   /    /   /

 -------------------------------------------------------------------------|
  S S S S  S S  S  S S S S S  S S S S    S S S S  S S S S  S S S S  S S S S
|-------------------------------------|---------------------------------------||
|-4-4-4-4--4-4--4--4-4-4-4-4--4-4-4-4-|--4-4-4-4--4-4-4-4--4-4-4-4--4-4-4-4---||
|-------------------------------------|---------------------------------------||
|-1-1-1-1--1-1--1--1-1-1-1-1--1-1-1-1-|--1-1-1-1--1-1-1-1--1-1-1-1--1-1-1-1---||
|-------------------------------------|---------------------------------------||
|-------------------------------------|---------------------------------------||
|
| E   E    E    Q.            Q          Q        Q        Q        Q
|--------------11---------------------|-11----------------11------------------||
|-8h==9---11-----------------11-------|----------11----------------11---------||
|-------------------------------------|---------------------------------------||
|-------------------------------------|---------------------------------------||
|-------------------------------------|---------------------------------------||
|-------------------------------------|---------------------------------------||


 Verse 1
  Gtr II
  PM------------------------------------------------------------------|
  E E E E E E E E   E E E E E E E E   E E E E E E E E   E E E E E E E E
|-----------------|-----------------|-----------------|------------------|
|-----------------|-----------------|-----------------|------------------|
|-----------------|-----------------|-----------------|------------------|
|-----------------|-----------------|-----------------|------------------|
|-1-1-1-1-1-1-1-1-|-1-1-1-1-1-1-1-1-|-6-6-6-6-6-6-6-6-|-6-6-6-6-6-6-6-6--|
|-1-1-1-1-1-1-1-1-|-1-1-1-1-1-1-1-1-|-6-6-6-6-6-6-6-6-|-6-6-6-6-6-6-6-6--|
|
| Gtr IV
| Q   E E Q   E E   E Q   H       E   E E E E E E E E   E Q   Q   Q   E
|-----------------|-----------------|-----------------|------------------|
|-----------------|-----------------|-----------------|------------------|
|-----------------|-----------------|-----------------|------------------|
|-----5---5---5-5-|-6-5---3---------|---5-5-5-5-5-5-5-|-6-5---3---1---3--|
|-----------------|-----------------|-----------------|------------------|
|-----------------|-----------------|-----------------|------------------|


   PM----------------------------------
   E  E E E E E E E   E E E E E E E E
|-------------------|-----------------|
|-------------------|-----------------|
|-------------------|-----------------|
|-------------------|-----------------|
|--3--3-3-3-3-3-3-3-|-3-3-3-3-3-3-3-3-|
|--3--3-3-3-3-3-3-3-|-3-3-3-3-3-3-3-3-|
|
| +H        Q   Q     E Q   Q   Q   E
|-------------------|-----------------|
|-------------------|-----------------|
|-------------------|-----------------|
|-(3)-----------5---|-6-5---3---1-----|
|-------------------|---------------6-|
|-------------------|-----------------|


 ---------------------------------------|
   E  E  E   E  E  E  E  E     E  E E E E E E E
|---------------------------|--------------------|
|---------------------------|--------------------|
|---------------------------|--------------------|
|---------------------------|-------------8-8-8--|
|--6--6--6---6--6--6--6--6--|--6--6-6-6-6-8-8-8--|
|--6--6--6---6--6--6--6--6--|--6--6-6-6-6-8-8-8--|
|
|  Q     E   Q     Q     E    +W
|---------------------------|--------------------|
|---------------------------|--------------------|
|---------------------------|--------------------|
|--6-----5---3-----1-----1--|-(1)----------------|
|-(6)---(6)-(6)---(6)---(6)-|-(6)----------------|
|---------------------------|--------------------|


  PM------------------------------------------------------------------|
  E E E E E E E E   E E E E E E E E   E E E E E E E E   E E E E E E E E
|-----------------|-----------------|-----------------|------------------|
|-----------------|-----------------|-----------------|------------------|
|-----------------|-----------------|-----------------|------------------|
|-----------------|-----------------|-----------------|------------------|
|-1-1-1-1-1-1-1-1-|-1-1-1-1-1-1-1-1-|-6-6-6-6-6-6-6-6-|-6-6-6-6-6-6-6-6--|
|-1-1-1-1-1-1-1-1-|-1-1-1-1-1-1-1-1-|-6-6-6-6-6-6-6-6-|-6-6-6-6-6-6-6-6--|
|
| E E E E E E E E   E Q   H  
            
Submit corrections


        Love Drunk lessons Hard to play? Try these video lessons and learn fast Love Drunk lessons
        
↑ Back to top | Tablatures and chords for acoustic guitar and electric guitar, ukulele, drums are parodies/interpretations of the original songs. You may use it for private study, scholarship, research or language learning purposes only