» » »

Boys Like Girls - Heels Over Head Tabs

Artists:  A B C D E F G H I J K L M N O P Q R S T U V W X Y Z # 

Heels Over Head Tabs

(ver. 3) Click to play this song!
Boys Like Girls
 Rating:
4/5 (4 votes)

 Heels Over Head lessons Tabs too difficult? Try these video lessons and learn fast
 
                -------------------------------------------------------------------------------
                            Heels Over Head - Boys Like Girls
-------------------------------------------------------------------------------

Tuning: Standard


 All palm Muted Intro ( Not Gonna Tab Out PM's, U Can Figure Them Out :P)
e|---------------------------------------------------------------------------|
B|---------------------------------------------------------------------------|
G|---------------------------------------------------------------------------|
D|--88888888888888-----------------------------------------------------------|
A|--66666666666666-888888888888--1010--10/888/66(6)-\-1010--10/888/66(6)-----|
E|-----------------666666666666---8-8---8/666/44(4)-\--8-8---8/666/44(4)-----|
 Do Intro 2 Times Till Pre-Chorus

Pre Chorus ( Not Too Sure Bout This One)
e|---7---7-------------------------------------------------------------------|
B|--6-6-6-6----a few times---------------------------------------------------|
G|-8---8---------------------------------------------------------------------|
D|---------------------------------------------------------------------------|
A|---------------------------------------------------------------------------|
E|---------------------------------------------------------------------------|

Chorus
e|--------------------------------------------------------------------------|
B|------------Do chorus 2 to 3 times i think--------------------------------|
G|-8xxxxxxxx----------------------------------------------------------------|
D|-8xxxxxxxx8xxxxxxxx-1010xxxxxx-88/66-xxxxxxx--666~------------------------|
A|-6xxxxxxxx8xxxxxxxx-1010xxxxxx-88/66-xxxxxxx--666~------------------------|
E|----------6xxxxxxxx--8-8xxxxxx-66/44-xxxxxxx--444~------------------------|

Repeat Verse ( 2x)
Repeat Pre-Chorus ( idk how any times)
Repeat Chorus ( As many As The Chorus Sais)

Bridge
e|---------------------------------------------------------------------------|
B|---------------------------------------------------------------------------|
G|---------------------------------------------------------------------------|
D|66 66 66 77~---------------------------------------------------------------|
A|66 66 66 77~------5 times?-------------------------------------------------|
E|44 44 44 55~---------------------------------------------------------------|

Repeat Chorus ( As many As The Chorus Sais)

UR DONE!!!! Y@Y!!!!!!!!!!!!

 hope u like it, 1st tab of mine, plz rate, i tabbed after hearing the song mill
times, and seeing live performances of the song to get his hand movement good,
its not perfect i know, plz cut me some slack. If there's anything wrong with it, e-mail 
plz, later


| /  slide up
| \  slide down
| h  hammer-on
| p  pull-off
| ~  vibrato
| +  harmonic
| x  Mute note
===============================================================================
            
Submit corrections


        Heels Over Head lessons Hard to play? Try these video lessons and learn fast Heels Over Head lessons
        
↑ Back to top | Tablatures and chords for acoustic guitar and electric guitar, ukulele, drums are parodies/interpretations of the original songs. You may use it for private study, scholarship, research or language learning purposes only