» » »

Boys Like Girls - Be Your Everything Tabs

Artists:  A B C D E F G H I J K L M N O P Q R S T U V W X Y Z # 

Be Your Everything Tabs

(ver. 2) Click to play this song!
Boys Like Girls
 Rating:
2.7/5 (30 votes)

 Be Your Everything lessons Tabs too difficult? Try these video lessons and learn fast
 
                Tuning: C G C E G C (Capo on 1st fret)

Guitar 1 (Martin)
Guitar 2 (Paul)

Intro
Guitar 1
C|-------------------------|
G|-------------------------|
E|-------------------------|
C|---3--3--3--3--7-7--0-0--|  2x
G|-------------------------|
C|--4--4--4--4--7-7--0-0---|

Verse
Guitar 1.
"Four Letter Word.." - "So we can just stop pretending.."
C|-------------------------|
G|-------------------------|
E|-------------------------|
C|---3--3--3--3--7-7--0-0--|  
G|-------------------------|
C|--4--4--4--4--7-7--0-0---|

Guitar 2.
"And I'm about to change the ending.." - "You're perfect for me"
C|--2---2---2---2-----------------|
G|----0---0---0---0---------------|
E|--------------------------------|
C|--------------------------------|
G|--------------------------------|
C|--------------------------------|

Pre-Chorus
Guitar 1.
"Now.." - "Gotta let you know.. somehow..."
C|-------------------------------|
G|-------------------------------|
E|--2--2--2--2----0--------------|
C|----------------0--------------|
G|----------------0--------------|
C|---2--2--2--2---0--------------|

Guitar2.
"Now.." - "Gotta let you know.. somehow..."
C|------2-------2-----2----------|
G|----0---0---0---0---0----------|
E|--0-------0-------0-0----------|
C|-------------------------------|
G|-------------------------------|
C|-------------------------------|


Chorus
Guitar 1.
"I'll be your shelter.." - "Baby i'm yours.." "Be your forever, be your fling"
C|--0---0---0---0---------------------------------0------0--------------------
G|--0---0---0---0---------------------------------0------0--------------------
E|--7---3---8---0---3x----------------------------8------0--------------------
C|--7---2---9---0---------------------------------9------0--------------------
G|--7---2---9---0---------------------------------9------0--------------------
C|--7---2---9---0---------------------------------9------0--------------------

Guitar 1.
"Baby I will be your everything.."
C|--0------0-------------------------------------------------------------------|
G|--0------0-------------------------------------------------------------------|
E|--8------0-------------------------------------------------------------------|
C|--9------0-------------------------------------------------------------------|
G|--9------0-------------------------------------------------------------------|
C|--9------0-------------------------------------------------------------------|


Guitar 2.
"I'll be your shelter.." - "Baby i'm yours.." "Be your forever.." "Baby i will be your everything.."
C|--0---0-0--0------------------------------------0---0--0--------------------|
G|--0---0-0--0---3x--------------------------------0--0--0--------------------|
E|--7---5/8--7---------------------------------4/7--0-0--9--------------------|
C|----------------------------------------------------------------------------|
G|----------------------------------------------------------------------------|
C|----------------------------------------------------------------------------|


After Chorus/Pre-verse
"Baby I.." - "Baby i will be your everything.."
Guitar 1.
C|--0---0---0---0-------------------------------|
G|--0---0---0---0-------------------------------|
E|--7---3---8---0-------------------------------|
C|--7---2---9---0-------------------------------|
G|--7---2---9---0-------------------------------|
C|--7---2---9---0-------------------------------|

Guitar 2.
C|--0---0---0---0-------------------------------|
G|--0---0---0---0-------------------------------|
E|--7---3---8---0-------------------------------|
C|--7---2---9---0-------------------------------|
G|--7---2---9---0-------------------------------|
C|--7---2---9---0-------------------------------|


Verse
Guitar 1.
"We used to say.." - "I want you all to myself right.."
C|--0---0---0-------------------------------|
G|--0---0---0-------------------------------|
E|--3---7---0-------------------------------|
C|--4---7---0-------------------------------|
G|--4---7---0-------------------------------|
C|--4---7---0-------------------------------|

Guitar 2.
C|--0---0---0-------------------------------|
G|--0---0---0-------------------------------|
E|--3---7---0-------------------------------|
C|--4---7---0-------------------------------|
G|--4---7---0-------------------------------|
C|--4---7---0-------------------------------|

Pre-Chorus.
Guitar 1.
"Now.. " - "I just wanna scream it out.."
C|--0------0-------------------------------|
G|--0------0-------------------------------|
E|--2------0-------------------------------|
C|--2------0-------------------------------|
G|--2------0-------------------------------|
C|--2------0-------------------------------|

Guitar 2.
C|--0------0-------------------------------|
G|--0------0-------------------------------|
E|--2------0-------------------------------|
C|--2------0-------------------------------|
G|--2------0-------------------------------|
C|--2------0-------------------------------|


Back to chorus.
And then next to After Chorus.


Pre-bridge
Guitar 1.
"No matter what you do, yeah.. " - "I'll be there for you.."
C|--x------0-------0------------------------|
G|--0------0-------0------------------------|
E|--2------3-------0-----2x-----------------|
C|--2------4-------0------------------------|
G|--2------4-------0------------------------|
C|--2------4-------0------------------------|

Guitar 2.
"No matter what you do, yeah.. " - "I'll be there for you.."
C|--x------0-------0------------------------|
G|--0------0-------0------------------------|
E|--2------3-------0-----2x-----------------|
C|--2------4-------0------------------------|
G|--2------4-------0------------------------|
C|--2------4-------0------------------------|

Bridge
Guitar 1.
"And every time you close your eyes.." - "Baby I will be your everything"
C|--0------0-------0------|------x-------------|
G|--0------0-------0------|------0-------------|
E|--8------10------12-----|------2-------------|
C|--9------11------12-----|------2-------------|
G|--9------11------12-----|------2-------------|
C|--9------11------12-----|------2-------------|

Pre-Chorus
Guitar 2. 
C|----------------------------------------------------|
G|----------------------------------------------------|
E|--7----7----3---3-----8---8----0--0-----------------|
C|--7----7----2---2-----9---9----0--0-----------------|
G|--7----7----2---2-----9---9----0--0-----------------|
C|----7----7----2---2-----9---9---0---0---------------|

Guitar 1.
While Paul playing his part, Martin moves the capo from 1st fret to 3rd fret,
And also Paul moves the capo to the 3rd fret.
"I'll be your shelter.." - "I'll keep you warm.."


Chorus
Guitar 1. (Capo 3rd fret)
"Whatever weather.." - "Baby I will be your everything.."
C|--0---0---0---0---|----0-----0---------------------|
G|--0---0---0---0---|----0-----0---------------------|
E|--7---3---8---0---|----8-----0---------------------|
C|--7---2---9---0---|----9-----0---------------------|
G|--7---2---9---0---|----9-----0---------------------|
C|--7---2---9---0---|----9-----0---------------------|

Guitar 2. (Capo 3rd fret)
"Whatever weather.." - "Baby I will be your everything.."
C|--0---0---0---0---|----0-----0---------------------|
G|--0---0---0---0---|----0-----0---------------------|
E|--7---3---8---0---|----8-----0---------------------|
C|--7---2---9---0---|----9-----0---------------------|
G|--7---2---9---0---|----9-----0---------------------|
C|--7---2---9---0---|----9-----0---------------------|


Outro
Guitar 1.
"Baby I.." - "Baby I will be your everything...."
C|--0---0---0---0------------------------------------|
G|--0---0---0---0------------------------------------|
E|--7---3---8---0---3x-------------------------------|
C|--7---2---9---0------------------------------------|
G|--7---2---9---0------------------------------------|
C|--7---2---9---0------------------------------------|

            
Submit corrections


        Be Your Everything lessons Hard to play? Try these video lessons and learn fast Be Your Everything lessons
        
↑ Back to top | Tablatures and chords for acoustic guitar and electric guitar, ukulele, drums are parodies/interpretations of the original songs. You may use it for private study, scholarship, research or language learning purposes only