» » »

Boyce Avenue - Time After Time Tabs

Artists:  A B C D E F G H I J K L M N O P Q R S T U V W X Y Z # 

Time After Time Tabs

(ver. 1) Click to play this song!
Boyce Avenue
 Rating:
4.3/5 (29 votes)
    Time After Time  lessons Tabs too difficult? Try these video lessons and learn fast
                [Intro]
D#|-----------------------------------------------------------------|
G#|-----2h4-------------5p4-------------2h4-------------5p4---4\2p0-|
D#|---5---------5-----5---------5-----5---------5-----5-------------| G1
C#|-0---------------0---------------0---------------0---------------|
G#|---------0---------------0---------------0-----------------------|
C#|-----------------------------------------------------------------|

D#|-----------------------------------------------------------------|
G#|-----2h4-------------5p4-------------2h4-------------5p4---4\2p0-|
D#|---5---------5-----5---------5-----5---------5-----5-------------| G1
C#|-0---------------0---------------0---------------0---------------|
G#|---------0---------------0---------------0-----------------------|
C#|-----------------------------------------------------------------|
  |                                                                 |
 e|-----------------------10--7-------------------------------------|
 B|-4h5-/-7h8-------------8-----10-8-8h10-8-------------------------|
 G|-4---/-7---------------7-----------------------------5p4---------| G2
 D|-------------------------------------------------------------7p5-|
 A|-----------------------------------------------------------------|
 E|-----------------------------------------------------------------|


[Verse 1]
D#|-----------------------------------------------------------------|
G#|-----7---------------7---------------7---------------7-----------|
D#|---5---------5-----5---------5-----5---------5-----5-------------| G1
C#|-0---------------0---------------0---------------0---------------| x2
G#|---------0---------------0---------------0-----------------------|
C#|-----------------------------------------------------------------|


[Pre-Chorus 1]
D#|-----0---------------0---------------0---------------0-----------|
G#|---0---------------0---------------0---------------0-------------|
D#|-5---/-7-------\-4---/-5---------5---/-7-------\-4---/-5---------| G1
C#|-----------------------------------------------------------------|
G#|-5---/-7-------\-4---/-5---------5---/-7-------\-4---/-5---------|
C#|-----------------------------------------------------------------|
  |                                                                 |
 e|-----------------------------------------------------------------|
 B|-----5/--------------3---------------5/----7---\-----3------5----|
 G|---5--/------------4---------------5--/--7-----\---4--/---5------| G2
 D|-5----/7-------\-4----/5---------5----/7-------\-4----/-5--------|
 A|-----------------------------------------------------------------|
 E|-----------------------------------------------------------------|

D#|-----0---------------0-------------------------------------------|
G#|---0---------------0---------------------------------------------|
D#|-5---/-7-------\-4---/-5-----------------------------------------| G1
C#|-----------------------------------------------------------------|
G#|-5---/-7-------\-4---/-5-----------------------------------------|
C#|-----------------------------------------------------------------|
  |                                                                 |
 e|-----------------------------------------------------------------|
 B|-----5/--------------3-------------------------------------------|
 G|---5--/------------4---------------------------------------------| G2
 D|-5----/7-------\-4----/5-----------------------------------------|
 A|-----------------------------------------------------------------|
 E|-----------------------------------------------------------------|


[Verse 2]
D#|-----------------------------------------------------------------|
G#|-----7---------------7---------------7---------------7-----------|
D#|---5---------5-----5---------5-----5---------5-----5-------------| G1
C#|-0---------------0---------------0---------------0---------------|
G#|---------0---------------0---------------0-----------------------|
C#|-----------------------------------------------------------------|\
  |                                                                 | x2
 e|-----------------------------------------------------------------|/
 B|-----1p0-------------1p0-------------1p0-------------3-----------|
 G|-------------0---------------0---------------0-------------------| G2
 D|-0h2-------------0h2-------------0h2-------------0h2-------------|
 A|-----------------------------------------------------------------|
 E|-----------------------------------------------------------------|


[Pre-Chorus 2]
D#|-----0---------------0---------------0---------------0-----------|
G#|---0---------------0---------------0---------------0-------------|
D#|-5---/-7-------\-4---/-5---------5---/-7-------\-4---/-5---------| G1
C#|-----------------------------------------------------------------|
G#|-5---/-7-------\-4---/-5---------5---/-7-------\-4---/-5---------|
C#|-----------------------------------------------------------------|
  |                                                                 |
 e|-----3/----5---\-----2/----3---------3/----5---\-----2/----3-----|
 B|---5--/--7-----\---3-----5---------5--/--7-----\---3-----5-------|
 G|-5----/7-------\-4----/5---------5----/7-------\-4----/5---------| G2
 D|-----------------------------------------------------------------|
 A|-----------------------------------------------------------------|
 E|-----------------------------------------------------------------|

D#|-----0-----0---------0-----------|
G#|---0---------0-----0-------0---0-|
D#|-5---/-7-------\-4---/-5-----5---| G1
C#|---------------------------------|
G#|-5---/-7-------\-4---/-5---------|
C#|---------------------------------|
  |                                 |
 e|-----3/--------------2/--------3-|
 B|---5--/------------3---------5---|
 G|-5----/7-------\-4----/5---5-----| G2
 D|---------------------------------|
 A|---------------------------------|
 E|---------------------------------|


[Chorus 1]
D#|-------0---------------0---------------0-------0-------0---------|
G#|-----0-----0---0-----0-----0---------0-------0-------0-----0---0-|
D#|---4---------4-----4---------4\2---2-------4-------5---------5---| G1
C#|-----------------------------------------------------------------|
G#|-------------------------------------------------0---------------|
C#|-2---------------4---------------0-------2-----------------------|
  |                                                                 |
 e|-----10--------------10--------------10------------------------10|
 B|---8-------8---8---8-------8---8-------8-----10------8-----8-----|
 G|-7-----------7---9-----------9-----9-------11--11--7---7---------| G2
 D|---------------------------------10------12------9---------------|
 A|-----------------------------------------------------------------|
 E|-----------------------------------------------------------------|

D#|-------0---------------0---------------0-------0-----------------|
G#|-----0-----0---0-----0-----0---------0-------0-------------------|
D#|---4---------4-----4---------4\2---2-------4---------------------| G1
C#|-----------------------------------------------------------------|
G#|-------------------------------------------------0---------------|
C#|-2---------------4---------------0-------2-----------------------|
  |                                                                 |
 e|-----10--------------10--------------10--------------------------|
 B|---8-------8---8---8-------8---8-------8-----10--8---------------|
 G|-7-----------7---9-----------9-----9-------11-11-7---------------| G2
 D|---------------------------------10------12------9---------------|
 A|-----------------------------------------------------------------|
 E|-----------------------------------------------------------------|



D#|-----------------------------------------------------------------|
G#|-----2h4-------------5p4-------------2h4-------------5p4---4\2p0-|
D#|---5---------5-----5---------5-----5---------5-----5-------------| G1
C#|-0---------------0---------------0---------------0---------------|
G#|---------0---------------0---------------0-----------------------|
C#|-----------------------------------------------------------------|
  |                                                                 |
 e|-----------------------10--7-------------------------------------|
 B|-4h5-/-7h8-------------------10-8-8h10-8-------------------------|
 G|-4---/-7---------------------------------------------5p4---------| G2
 D|-------------------------------------------------------------7p5-|
 A|-----------------------------------------------------------------|
 E|-----------------------------------------------------------------|


[Verse 3]
D#|-----------------------------------------------------------------|
G#|-----7---------------7---------------7---------------7-----------|
D#|---5---------5-----5---------5-----5---------5-----5-------------| G1
C#|-0---------------0---------------0---------------0---------------|
G#|---------0---------------0---------------0-----------------------|
C#|-----------------------------------------------------------------|\
  |                                                                 | x2
 e|-----------------------------------------------------------------|/
 B|-----1p0-------------1p0-------------1p0-------------3-----------|
 G|-------------0---------------0---------------0-------------------| G2
 D|-0h2-------------0h2-------------0h2-------------0h2-------------|
 A|-----------------------------------------------------------------|
 E|-----------------------------------------------------------------|
 

[Pre-Chorus 3]
D#|-----0---------------0---------------0---------------0-----------|
G#|---0---------------0---------------0---------------0-------------|
D#|-5---/-7-------\-4---/-5---------5---/-7-------\-4---/-5---------| G1
C#|-----------------------------------------------------------------|
G#|-5---/-7-------\-4---/-5---------5---/-7-------\-4---/-5---------|
C#|-----------------------------------------------------------------|
  |                                                                 |
 e|-----------------------------------------------------------------|
 B|-----3---------------3---------------3---------------3-----------|
 G|---4---------------4---------------4---------------4-------------| G2
 D|-5-----4---------4-----5---------5-----4---------4-----5---------|
 A|-----------------------------------------------------------------|
 E|-----------------------------------------------------------------|

D#|-----0-----0---------0-----------|
G#|---0---------0-----0-------0---0-|
D#|-5---/-7-------\-4---/-5-----5---| G1
C#|---------------------------------|
G#|-5---/-7-------\-4---/-5---------|
C#|---------------------------------|
  |                                 |
 e|-------------------------------3-|
 B|-----3---------------3-------5---|
 G|---4---------------4-------5-----| G2
 D|-5-----4---------4-----5---------|
 A|---------------------------------|
 E|---------------------------------|


 [Chorus 2]
D#|-------0---------------0---------------0-------0-------0---------|
G#|-----0-----0---0-----0-----0---------0-------0-------0-----0---0-|
D#|---4---------4-----4---------4\2---2-------4-------5---------5---| G1
C#|-----------------------------------------------------------------|
G#|-------------------------------------------------0---------------|
C#|-2---------------4---------------0-------2-----------------------|
  |                                                                 |
 e|-----10--------------10--------------10------------------------10|
 B|---8-------8---8---8-------8---8-------8-----10------8-----8-----|
 G|-7-----------7---9-----------9-----9-------11--11--7---7---------| G2
 D|---------------------------------10------12------9---------------|
 A|-----------------------------------------------------------------|
 E|-----------------------------------------------------------------|

D#|-------0---------------0---------------0-------0-----------------|
G#|-----0-----0---0-----0-----0---------0-------0-------------------|
D#|---4---------4-----4---------4\2---2-------4---------------------| G1
C#|-----------------------------------------------------------------|
G#|-------------------------------------------------0---------------|
C#|-2---------------4---------------0-------2-----------------------|
  |                                                                 |
 e|-----10--------------10----10--------3-------5---10--------------|
 B|---8-------8---8---8-----------8---5---5---7---7-8---------------|
 G|-7-----------7---9-----------9---5-------7-------7---------------| G2
 D|-----------------------------------------------------------------|
 A|-----------------------------------------------------------------|
 E|-----------------------------------------------------------------|



D#|-----------------------------------------------------------------|
G#|-----2h4-------------5p4-------------2h4-------------5p4---4\2p0-|
D#|---5---------5-----5---------5-----5---------5-----5-------------| G1
C#|-0---------------0---------------0---------------0---------------|
G#|---------0---------------0---------------0-----------------------|
C#|-----------------------------------------------------------------|
  |                                                                 |
 e|-----------------------10--7-------------------------------------|
 B|-4h5-/-7h8-------------------10-8-8h10-8-------------------------|
 G|-4---/-7---------------------------------------------5p4---------| G2
 D|-------------------------------------------------------------7p5-|
 A|-----------------------------------------------------------------|
 E|-----------------------------------------------------------------|


[Pre-Chorus 4]
D#|-----0---------------0---------------0---------------0-----------|
G#|---0---------------0---------------0---------------0-------------|
D#|-5---/-7-------\-4---/-5---------5---/-7-------\-4---/-5---------| G1
C#|-----------------------------------------------------------------|
G#|-5---/-7-------\-4---/-5---------5---/-7-------\-4---/-5---------|
C#|-----------------------------------------------------------------|

D#|-----0---------------0-------------------------------------------|
G#|---0---------------0---------------------------------------------|
D#|-5---/-7-------\-4---/-5-----------------------------------------| G1
C#|-----------------------------------------------------------------|
G#|-5---/-7-------\-4---/-5-----------------------------------------|
C#|-----------------------------------------------------------------|


[Chorus 3]
D#|-------0---------------0---------------0-------0-------0---------|
G#|-----0-----0---0-----0-----0---------0-------0-------0-----0---0-|
D#|---4---------4-----4---------4\2---2-------4-------5---------5---| x2
C#|-----------------------------------------------------------------| G1
G#|-------------------------------------------------0---------------|
C#|-2---------------4---------------0-------2-----------------------|

D#|-------0---------------0---------------0-------0-------0---------|
G#|-----0-----0---0-----0-----0---------0-------0-------0-----0---0-|
D#|---4---------4-----4---------4\2---2-------4-------5---------5---| G1
C#|-----------------------------------------------------------------|
G#|-------------------------------------------------0---0---0---0---|
C#|-2---2---2---2---4---4---4---4---0---0---2---2-------------------|
  |                                                                 |
 e|-----------------------------------------------------------------|
 B|-----------------------------------------------------------------|
 G|---x-x-x-x-x-x-x---x-x-x-x-x-x-x---x-x-x---x-x-x---4-4-4-4-4-4-4-| G2
 D|---4-4-4-4-4-4-4---4-4-4-4-4-4-4---2-2-2---4-4-4---5-5-5-5-5-5-5-|
 A|---5-5-5-5-5-5-5---5-5-5-5-5-5-5---3-3-3---5-5-5---5-5-5-5-5-5-5-|
 E|-5---------------7---------------3-------5-------3---------------|

D#|-------0---------------0---------------0-------0-------0---------|
G#|-----0-----0---0-----0-----0---------0-------0-------0-----0---0-|
D#|---4---------4-----4---------4\2---2-------4-------5---------5---| G1
C#|-----------------------------------------------------------------|
G#|-------------------------------------------------0---0---0---0---|
C#|-2---2---2---2---4---4---4---4---0---0---2---2-------------------|
  |                                                                 |
 e|-----------------------------------------------------------------|
 B|---------------------------------------1-------3-------3---------|
 G|---x-x-x-x-x-x-x---x-x-x-x-x-x-x---------------------------------| G2
 D|---4-4-4-4-4-4-4---4-4-4-4-4-4-4-----2-------4-------5-----5---5-|
 A|---5-5-5-5-5-5-5---5-5-5-5-5-5-5---3-------5-------5---------5---|
 E|-5---------------7---------------3-------5-------3---------------|

D#|-------0-------0-------0---------------0-------0-------0---------|
G#|-----0-------0-------0-----0---0-----0-------0-------0-----0---0-|
D#|---2-------4-------5---------5-----2-------4-------5---------5---| G1
C#|-----------------------------------------------------------------|
G#|-----------------0---0---0---0-------------------0---0---0---0---|
C#|-0---0---2---2-------------------0---0---2---2-------------------|
  |                                                                 |
 e|-----------------------------------------------------------------|
 B|-------8-------10------8---------------8-------10----8-----------|
 G|-----9-------11------7---------------9-------11----7---7\5\4-----| G2
 D|-10------12------9---------------10------12------9-----------7p5-|
 A|-----------------------------------------------------------------|
 E|-----------------------------------------------------------------|

D#|-----------------------------------------------------------------|
G#|-----------------------------------------------------------------|
D#|-----------------------------------------------------------------| G1
C#|-----------------------------------------------------------------|
G#|-------------0---------------------------------------------------|
C#|-0-------2-------------------------------------------------------|
            
Submit corrections

↑ Back to top | Tablatures and chords for acoustic guitar and electric guitar, ukulele, drums are parodies/interpretations of the original songs. You may use it for private study, scholarship, research or language learning purposes only