» » »

Boyce Avenue - Castle On The Hill Tabs

Artists:  A B C D E F G H I J K L M N O P Q R S T U V W X Y Z # 

Castle On The Hill Tabs

(ver. 1) Click to play this song!
Boyce Avenue
 Rating:
4.2/5 (30 votes)


 Castle On The Hill  lessons Tabs too difficult? Try these video lessons and learn fast
 
                [Verse 1]

d|---------7-------------------------------7---------------7-------|
D|-------0-------------------------------0-----0---------0-----0---|
A|-----------------------------------------------------------------|
D|-----------------------------------------------------------------|
A|---5-------------------------------------------------------------|
D|-------------4---5-----------------9---------------7-------------|
     .   .   .   .   .   .   .   .   .   .   .   .   .   .   .   .

d|---------7-------------------------------7---------------7-------|
D|-------0-------------------------------0-----0---------0---------|
A|-----------------------------------------------------------------|
D|-----------------------------------------------------------------|
A|---5---------------------------------------------------------4---|
D|-------------4---5-----------------9---------------7-------------|
     .   .   .   .   .   .   .   .   .   .   .   .   .   .   .   .
     
d|---------7---------------7---------------7---------------7-------|
D|---------0---------------0---------------0---------------0-------|
A|-------0---------------0---------------0---------------0---------|
D|-----------------------------------------------------------------|
A|-5-----------------------------------------------------------4---|
D|-------------4---5-----------5---9-----------9---7---------------|
     .   .   .   .   .   .   .   .   .   .   .   .   .   .   .   .

d|---------7---------------7---------------7---------------7-------|
D|---------0---------------0---------------0---------------0-------|
A|-------0---------------0---------------0---------------0---------|
D|-----------------------------------------------------------------|
A|-5---------------------------------------------------------------|
D|-------------4---5-----------5---9-----------9---7---------------|
     .   .   .   .   .   .   .   .   .   .   .   .   .   .   .   .


[Pre-Chorus 1]

d|-----------------------------------------------------------------|
D|---------0---------------0---------------0-------------0---------|
A|-------0---------------0---------------0-------------0---0-------| x2
D|---4---------4---2-----------2-/-4-----------4---5---------5p4-0-|
A|---2---------2---0-----------0-----------------------------------|
D|---------------------------------0-----------0---5---------------|
     .   .   .   .   .   .   .   .   .   .   .   .   .   .   .   .
                               
d|---------------------------------|
D|---------0-----------------------|
A|-------0-------------------------|
D|---4---------4---2---------------|
A|---2---------2---0---------------|
D|---------------------------------|
     .   .   .   .   .   .   .   .


[Chorus 1]
   v v   v   v v   v   v v   v v   v   v v   v v   v   v v   v v
d|---0---0-----0---0-----0-----0---0-----0-----0---0-----0-----0---|
D|---0---0-----0---0-----0-----0---0-----0-----0---0-----0-----0---|
A|-0-0---0---0-4-/-5---5-5---5-5-/-9---9-9---9-9-\-7---7-7---7/11--| x4
D|-0-0---0---0-0---0---0-0---0-0---0---0-0---0-0---0---0-0---0-0---|
A|-0-0---0---0-x---x---x-x---x-x---x---x-x---x-x---x---x-x---x-x---|
D|-0-0---0---0-4-/-5---5-5---5-5-/-9---9-9---9-9-\-7---7-7---7/11--|
     .   .   .   .   .   .   .   .   .   .   .   .   .   .   .   .

   v
d|-0-------------------------------|
D|-0-------------------------------|
A|-0-------------------------------|
D|-0-------------------------------|
A|-0-------------------------------|
D|-0-------------------------------|
     .   .   .   .   .   .   .   .


[Verse 2]
  PM
d|---7---7-----7---7-----7-----7---7-----7-----7---7-----7-----7---|
D|---0---0-----0---0-----0-----0---0-----0-----0---0-----0-----0---|
A|-----------------------------------------------------------------|
D|-----------------------------------------------------------------|
A|---5-5-5-5-5-------------------------------------------------4-4-|
D|-------------4-4-5-5-5-5-5-5-5-5-9-9-9-9-9-9-9-9-7-7-7-7-7-7-----|
     .   .   .   .   .   .   .   .   .   .   .   .   .   .   .   .
  PM                                                           v
d|-7-----7-----7---7-----7-----7---7-----7-----7---7-----7-----7---|
D|-0-----0-----0---0-----0-----0---0-----0-----0---0-----0-----0---|
A|-------------------------------------------------------------0---|
D|-------------------------------------------------------------x---|
A|-5-5-5-5-5-5-------------------------------------------------4---|
D|-------------4-4-5-5-5-5-5-5-5-5-9-9-9-9-9-9-9-9-7-7-7-7-7-7-----|
     .   .   .   .   .   .   .   .   .   .   .   .   .   .   .   .
  PM
   v v v v v v v v v v v v v v v v v v v v v v v v v v v v v v v v 
d|-7-----7-----7---7-----7-----7---7-----7-----7---7-----7-----7---|
D|-0-----0-----0---0-----0-----0---0-----0-----0---0-----0-----0---|
A|-0-0-0-0-0-0-0---0-----0-----0---0-----0-----0---0-----0-----0---|
D|-x-x-x-x-x-x-0-0-0-0-0-0-0-0-0-0-0-0-0-0-0-0-0-0-0-0-0-0-0-0-0-0-|
A|-5-5-5-5-5-5-x-x-x-x-x-x-x-x-x-x-x-x-x-x-x-x-x-x-x-x-x-x-x-x-x-x-|
D|-------------4-4-5-5-5-5-5-5-5-5-9-9-9-9-9-9-9-9-7-7-7-7-7-7-7-7-|
     .   .   .   .   .   .   .   .   .   .   .   .   .   .   .   .
  PM
   v v v v v v v v v v v v v v v v v v v v v v v v v v v v v v V V 
d|-7-----7-----7---7-----7-----7---7-----7-----7---7-----7-------7-|
D|-0-----0-----0---0-----0-----0---0-----0-----0---0-----0-------0-|
A|-0-----0-----0---0-----0-----0---0-----0-----0---0-----0-----0-0-|
D|-0-0-0-0-0-0-0-0-0-0-0-0-0-0-0-0-0-0-0-0-0-0-0-0-0-0-0-0-0-0-0-0-|
A|-x-x-x-x-x-x-x-x-x-x-x-x-x-x-x-x-x-x-x-x-x-x-x-x-x-x-x-x-x-x-x-x-|
D|-7-7-7-7-7-7-4-4-5-5-5-5-5-5-5-5-9-9-9-9-9-9-9-9-7-7-7-7-7-7-7-7-|
     .   .   .   .   .   .   .   .   .   .   .   .   .   .   .   .


[Pre-Chorus 2]
     v             v               v               v
d|---0-------------0---------------0---------------0---------------|
D|---0-------------0---------------0---------------0---------------|
A|---0-------------0---------------0---------------0---------------| x2
D|---4-------------2---------------4---------------5---------------|
A|---2-------------0---------------0---------------x---------------|
D|---------------------------------0---------------5---------------|
     .   .   .   .   .   .   .   .   .   .   .   .   .   .   .   .

     v             v                              
d|---0-------------0-----------------|
D|---0-------------0-----------------|
A|---0-------------0-----------------|
D|---4-------------2-----------------|
A|---2-------------0-----------------|
D|-------------------------------15\7|
     .   .   .   .   .   .   .   . 


[Chorus 2]
     v   v   v v   v     v   v v   v   v v   v v   v     v   v v
d|---0---0-----0---0-----0-----0---0-----0-----0---0-----0-----0---|
D|---0---0-----0---0-----0-----0---0-----0-----0---0-----0-----0---|
A|---0---0---0-4-/-5-----5---5-5-/-9---9-9---9-9-\-7---7-7---7/11--|
D|---0---0---0-0---0-----0---0-0---0---0-0---0-0---0---0-0---0-0---|
A|---0---0---0-x---x-----x---x-x---x---x-x---x-x---x---x-x---x-x---|
D|---0---0---0-4-/-5-----5---5-5-/-9---9-9---9-9-\-7---7-7---7/11--|
     .   .   .   .   .   .   .   .   .   .   .   .   .   .   .   .

   v   v v   v v   v   v v   v v   v   v v   v v   v   v v   v v
d|-0-----0-----0---0-----0-----0---0-----0-----0---0-----0-----0---|
D|-0-----0-----0---0-----0-----0---0-----0-----0---0-----0-----0---|
A|-0---0-0---0-4-/-5---5-5---5-5-/-9---9-9---9-9-\-7---7-7---7/11--| x4
D|-0---0-0---0-0---0---0-0---0-0---0---0-0---0-0---0---0-0---0-0---|
A|-0---0-0---0-x---x---x-x---x-x---x---x-x---x-x---x---x-x---x-x---|
D|-0---0-0---0-4-/-5---5-5---5-5-/-9---9-9---9-9-\-7---7-7---7/11--|
     .   .   .   .   .   .   .   .   .   .   .   .   .   .   .   .

   v   v v   v v   v   v v   v v   v   v v   v v   v   v v   v   v
d|-0-----0-----0---0-----0-----0---0-----0-----0---0-----0-------0---|
D|-0-----0-----0---0-----0-----0---0-----0-----0---0-----0-------0---|
A|-0---0-0---0-4-/-5---5-5---5-5-/-9---9-9---9-9-\-7---7-7---7/9-7---|
D|-0---0-0---0-0---0---0-0---0-0---0---0-0---0-0---0---0-0---0---0---|
A|-0---0-0---0-x---x---x-x---x-x---x---x-x---x-x---x---x-x---x---x---|
D|-0---0-0---0-4-/-5---5-5---5-5-/-9---9-9---9-9-\-7---7-7---7/9-7---|
     .   .   .   .   .   .   .   .   .   .   .   .   .   .   .   .


   v
d|-0-------------------------------------4h5p4---------------------|
D|-0---------------------0-------------0-------0---------0---------|
A|-0-------------------0-------------0-----------0-----4-----4---2-|
D|-4-----------------5-------5---4-------------------2-------------|
A|-2-----------------------------------------------0---------------|
D|-----------------5---------------0-------------------------------|
   .   .   .   .   .   .   .   .   .   .   .   .   .   .   .   .


[Bridge]

d|---------------------------------------4h5p4---------------------|
D|-------0---------------0---------------------0---------0---------|
A|-----2-----2---------0-----5---4-----0---------0-----4-----4---2-| x3
D|---0---------------5---------------4---------------2-------------|
A|-2-----------------------------------------------0---------------|
D|-----------------5---------------0-------------------------------|
   .   .   .   .   .   .   .   .   .   .   .   .   .   .   .   .

d|---------------------------------------4h5p4---------------------|
D|-------0---------------0---------------------0---------0---------|
A|-----2-----2---------0-----5---4-----0---------0-----4-----4-----|
D|---0---------------5---------------4---------------2-------------|
A|-2-----------------------------------------------0---------------|
D|-----------------5---------------0-------------------------------|
   .   .   .   .   .   .   .   .   .   .   .   .   .   .   .   .


[Chorus 3]

d|-----------------------------------------------------------------|
D|-0-------------0-----------------0---------------0---------------|
A|-0-------------0-----------------0---------------0---------------|
D|-0-------------0-----------------4---------------2---------------|
A|---------------------------------2---------------0---------------|
D|-0-------------5-------------------------------------------------|
   .   .   .   .   .   .   .   .   .   .   .   .   .   .   .   .

                                                           v ^ v
d|-----------------------------------------------------------------|
D|-0---------0---0-----------0---0-----------0---0-----------------|
A|-0---------4---2-----------4---2-----------2---0-----------------|
D|-0---------0---0-----------0---0-----------0---2-----------------|
A|-------------------------------2-----------2---0---------x-x-----|
D|-0---------4---5-----------4-----------------------------x-x-15\7|
   .   .   .   .   .   .   .   .   .   .   .   .   .   .   .   .

     v   v   v v   v     v   v v   v   v v   v v   v     v   v v
d|---0---0-----0---0-----0-----0---0-----0-----0---0-----0-----0---|
D|---0---0-----0---0-----0-----0---0-----0-----0---0-----0-----0---|
A|---0---0---0-4-/-5-----5---5-5-/-9---9-9---9-9-\-7---7-7---7/11--|
D|---0---0---0-0---0-----0---0-0---0---0-0---0-0---0---0-0---0-0---|
A|---0---0---0-x---x-----x---x-x---x---x-x---x-x---x---x-x---x-x---|
D|---0---0---0-4-/-5-----5---5-5-/-9---9-9---9-9-\-7---7-7---7/11--|
     .   .   .   .   .   .   .   .   .   .   .   .   .   .   .   .

   v   v v   v v   v   v v   v v   v   v v   v v   v   v v   v v
d|-0-----0-----0---0-----0-----0---0-----0-----0---0-----0-----0---|
D|-0-----0-----0---0-----0-----0---0-----0-----0---0-----0-----0---|
A|-0---0-0---0-4-/-5---5-5---5-5-/-9---9-9---9-9-\-7---7-7---7/11--| x3
D|-0---0-0---0-0---0---0-0---0-0---0---0-0---0-0---0---0-0---0-0---|
A|-0---0-0---0-x---x---x-x---x-x---x---x-x---x-x---x---x-x---x-x---|
D|-0---0-0---0-4-/-5---5-5---5-5-/-9---9-9---9-9-\-7---7-7---7/11--|
     .   .   .   .   .   .   .   .   .   .   .   .   .   .   .   .

   v
d|-0-------------------------------|
D|-0-------------------------------|
A|-0-------------------------------|
D|-0-------------------------------|
A|-0-------------------------------|
D|-0-------------------------------|
     .   .   .   .   .   .   .   .            
Submit corrections



        Castle On The Hill  lessons Hard to play? Try these video lessons and learn fast Castle On The Hill  lessons
        
↑ Back to top | Tablatures and chords for acoustic guitar and electric guitar, ukulele, drums are parodies/interpretations of the original songs. You may use it for private study, scholarship, research or language learning purposes only