Home » B » Boy And Bear »

Boy And Bear - Rabbit Song Tabs

Artists:  A B C D E F G H I J K L M N O P Q R S T U V W X Y Z # 

Rabbit Song Tabs

(ver. 1) Click to play this song!
Boy And Bear
EP: With Emperor Antartica

Firstly The acoutic guitar


Chords Used

   C#m  A   F#11  Aadd9  E
e:--4---5----0------0----0-|
B:--5---5----0------0----0-|
G:--6---6----3------6----1-|
D:--6---7----4------7----2-|
A:--4---7----4------7----2-|
E:------5----------------0-|

Standard Tuning

Intro riff X4

e:-------------------------------------------------|
B:-4h5---5----4----2-----0h2----0--2---5---4-------|
G:-------------------------------------------------|
D:-4h6---6----4----4-----4------4--2---6---4-------|
A:-----4--------2------------4-----------4---2-----|
E:---------5----------2----------------------------|



Second riff

  C#m (repeat 4 times)

e:--------4-----|
B:-4h5----------|
G:----------6---|
D:--------------|
A:------4-------|
E:--------------|


Verse

  C#m (repeat 4x)     A (repeat 4x)   F#11 (repeat 4x)

e:-------4-----------------5---------------0-------|
B:-4h5----------------5---------------0------------|
G:---------6------------------6---------------3----|
D:-------------------------------------------------|
A:-----4-----------------7---------------4---------|
E:-------------------------------------------------|


 Then Second riff 4 times

 Then Verse again

 Then Intro Riff 2 times.


Build up bit


 C#m (with variations though, hammer on 2nd, 3rd and 4th strings in different rhythms to 
form C#m)

 Bridge

 C#m
 I'll keep my soul my heads not coming back...

 (lead bit starts here)
 C#m

 I'll keep my soul my heads not coming back...
 E                     F#11

 C#m
 E		       F#11
 C#m
 E		       F#11


 Pre chorus

 C#m
 no i don't intend to keep a falling knife i fight to keep them home

 E		                  F#11
 not to watch them dance upon the ceiling to compete their song.

 C#m
 it's not enough my friend to relegate lets keep them on their toes

 E                                F#11
 lets keep the biggots from their bones their tears and the rabbits from their holes



 Chorus (until end)

 Aadd9	      E
 Ooohhhh Ohhhh and all

 F#11
 alone The rabbits in their holes



Lead parts

 During verse (~37 secs in), just repeat that a few times.

e:---4----4---------|
B:-5-5-5--5---------|
G:-6-6-6--6---------|
D:-6-6-6--6---------|
A:-4---4------------|
E:------------------|


Just after the verse (~55 secs in) - Repeats

e:-4-4--4---2--2-2---2--2--4--2---|
B:-5-5--5---4--4-4---2--2--5--4---|
G:-6-6--6---4--4-4---3--3--6--4---|
D:-6-6--6---4--4-4---4--4--6--4---|
A:--------------------------------|
E:--------------------------------|


Repeated lead - first time is ~1:22 in

e:-------------------------------------|
B:-------------------------------------|
G:------------------4------------------|
D:-x-x----4--6----6---6-4----4---4-----|
A:-x-x-6-----------------------6---6---|
E:-------------------------------------|


Any comments or corrections
            
Submit corrections

↑ Back to top | Tablatures and chords for acoustic guitar and electric guitar, ukulele, drums are parodies/interpretations of the original songs. You may use it for private study, scholarship, research or language learning purposes only