» » »

Bowling For Soup - Why Dont I Miss You Tabs

Artists:  A B C D E F G H I J K L M N O P Q R S T U V W X Y Z # 

Why Dont I Miss You Tabs

(ver. 2) Click to play this song!
Bowling For Soup
 Rating:
4/5 (4 votes)

 Why Dont I Miss You lessons Tabs too difficult? Try these video lessons and learn fast
 
                -----------------------------------------------------------------
Why Don't I Miss You - Bowling For Soup
-----------------------------------------------------------------
Tuning: Standard

Intro:
e|---------------------------------------------------------------|
B|---------------------------------------------------------------|
G|--4444-------------------------66666666------------------------|
D|--4444--4444--6666--2222--(X2)-66666666--2---------------------|
A|--2222--4444--6666--2222-------44444444--2---------------------|
E|--------2222--4444--0000-----------------0---------------------|

Verse:
e|---------------------------------------------------------------|
B|---------------------------------------------------------------|
G|--44444444------------66666666---------------------------------|
D|--44444444--22222222--66666666--44444444-----------------------|
A|--22222222--22222222--44444444--44444444-----------------------|
E|------------00000000------------22222222-----------------------|
"Remember back at Ryder High...."

Chorus:
e|---------------------------------------------------------------|
B|---------------------------------------------------------------|
G|--4444--------------------66666666-----------------------------|
D|--4444--4444--6666--2222--66666666--22--44444------------------|
A|--2222--4444--6666--2222--44444444--22--44444------------------|
E|--------2222--4444--0000------------02--22222------------------|
"So why don't I miss you...."

Post-Chorus:
e|---------------------------------------------------------------|
B|---------------------------------------------------------------|
G|--------------6666---------------------------------------------|
D|--6666--4444--6666--2222---------------------------------------|
A|--6666--4444--4444--2222---------------------------------------|
E|--4444--2222--------0000---------------------------------------|
"We took it all away...."

Bridge:
e|-------------------------------------|--------------------------|
B|-------------------------------------|--------------------------|
G|-------------------------------------|--6-6-6-9-----------------|
D|--5555555--7777777--5555555--777777--|--6-6-6-9-(X2)------------|
A|--5555555--7777777--5555555--777777--|--4-4-4-7-----------------|
E|--3333333--5555555--3333333--555555--|--------------------------|
"I miss the way you laugh at everything....."

Then the chorus
Then the Post-Chorus
            
Submit corrections


        Why Dont I Miss You lessons Hard to play? Try these video lessons and learn fast Why Dont I Miss You lessons
        
↑ Back to top | Tablatures and chords for acoustic guitar and electric guitar, ukulele, drums are parodies/interpretations of the original songs. You may use it for private study, scholarship, research or language learning purposes only