» » »

Bowling For Soup - Surf Colorado Tabs

Artists:  A B C D E F G H I J K L M N O P Q R S T U V W X Y Z # 

Surf Colorado Tabs

(ver. 1) Click to play this song!
Bowling For Soup
 Rating:
4/5 (4 votes)

 Surf Colorado lessons Tabs too difficult? Try these video lessons and learn fast
 
                Standard Tuning

... - palm mute
\ - slide up

listen for strum pattern 
(you really should cuz i don't feel like writin the chords a lot)


(guitar 1 & 2 together)
e|------------|
B|------------|
G|------------|
D|--7---9-----|
A|--7---9-----|
E|--5---7-----|


guitar 1's other part of the intro I haven't figured out yet.. 
anyway, here's guitar 2's other part of it..


(guitar 2) - INTRO & CHORUS
e|-------------------|
B|-------------------|
G|--9-------6\7------|
D|--9---7---6\7---9--|
A|--7---7---4\5---9--|
E|------5---------7--|


VERSE 1
e|---------|                   e|---------|
B|---------|                   B|---------|
G|--9------| < < play 3x       G|--6------|  play both of those twice,
D|--9---7--|     then this > > D|--6---9--|  then hit the pre-chorus...
A|--7---7--|                   A|--4---9--|
E|------5--|                   E|------7--|
   ..  ..                         ..  ..


PRE-CHORUS
e|-------------|                   e|---------|
B|-------------|                   B|---------|
G|----------9--| < < play 2x       G|---------|
D|--7---9---9--|     then this > > D|--7---9--|
A|--7---9---7--|                   A|--7---9--|
E|--5---7------|                   E|--5---7--|


CHORUS
e|-------------------|
B|-------------------|
G|--9-------6\7------| < < repeat 2x
D|--9---7---6\7---9--|
A|--7---7---4\5---9--|
E|------5---------7--|


VERSE 2
e|---------|                   e|---------|
B|---------|                   B|---------|
G|--9------| < < play 3x       G|--6------|  play both of those twice,
D|--9---7--|     then this > > D|--6---9--|  then hit the pre-chorus...
A|--7---7--|                   A|--4---9--|
E|------5--|                   E|------7--|
   ..  ..                         ..  ..


PRE-CHORUS
e|-------------|                   e|---------|
B|-------------|                   B|---------|
G|----------9--| < < play 2x       G|---------|
D|--7---9---9--|     then this > > D|--7---9--|
A|--7---9---7--|                   A|--7---9--|
E|--5---7------|                   E|--5---7--|


CHORUS
e|-------------------|
B|-------------------|
G|--9-------6\7------| < < repeat 2x
D|--9---7---6\7---9--|
A|--7---7---4\5---9--|
E|------5---------7--|


INTERLUDE - x = strum as needed and stop ringing
e|----------|
B|----------|
G|--7x------| < < repeat 2x
D|--7x---7--|
A|--9x---7--|
E|-------5--|

e|-----------------|
B|-----------------|
G|--9--------------|
D|--9---7---4---9--|
A|--7---7---4---9--|
E|------5---2---7--|

e|----------|
B|----------|
G|--9x------| < < repeat 2x
D|--9x---7--|
A|--7x---7--|
E|-------5--|

e|-----------------|
B|-----------------|
G|--9--------------|
D|--9---7---4---9--|
A|--7---7---4---9--|
E|------5---2---7--|

after that there's a part guitar 1 plays that i haven't figured out..

e|--------------------|
B|--------------------|
G|--9x----------------|
D|--9x---7x---4x---9--|
A|--7x---7x---4x---9--|
E|-------5x---2x---7--|


CHORUS
e|-------------------|
B|-------------------|
G|--9-------6\7------| < < repeat 2x
D|--9---7---6\7---9--|
A|--7---7---4\5---9--|
E|------5---------7--|


OUTRO
e|----------------------------------------------------------------------------------------|
B|----------------------------------------------------------------------------------------|
G|-----9---9-----9---9-----9---9-----9---9-----9---9-----9---9-----9---9-----9---9-----9--|
D|----------------------------------------------------------------------------------------|
A|--77--77--7777--77--7777--77--7777--77--7777--77--7777--77--7777--77--7777--77--7777----|
E|----------------------------------------------------------------------------------------|
  pm..  ..  ....  ..  ....  ..  ....  ..  ....  ..  ....  ..  ....  ..  ....  ..  ....
            
Submit corrections


        Surf Colorado lessons Hard to play? Try these video lessons and learn fast Surf Colorado lessons
        
↑ Back to top | Tablatures and chords for acoustic guitar and electric guitar, ukulele, drums are parodies/interpretations of the original songs. You may use it for private study, scholarship, research or language learning purposes only