» » »

Bowling For Soup - I Don't Wanna Rock Tabs

Artists:  A B C D E F G H I J K L M N O P Q R S T U V W X Y Z # 

I Don't Wanna Rock Tabs

(ver. 2) Click to play this song!
Bowling For Soup
 Rating:
4/5 (4 votes)

 I Don't Wanna Rock lessons Tabs too difficult? Try these video lessons and learn fast
 
                


INTRO
      G          C          G            C   E F# G          
     E----------------------------------------------
     B----------------------------------------------
     G----------------------------------------------
     D----------------------------------------------
     A-----0-2-0--3-3-2-0-2-------0-2-0---3---------
     E-3-3-------3----------2-3-3-------3-----0-2-3-

VERSE

      G               C              D
     E--------------------------------------------
     B--------------------------------------------
     G-------------- -5-5-5-5-5-5-5- 7-7-7-7-7-7-7-
     D-5-5-5-5-5-5-5- 5-5-5-5-5-5-5- 7-7-7-7-7-7-7-
     A-5-5-5-5-5-5-5--3-3-3-3-3-3-3 -5-5-5-5-5-5-5-
     E-3-3-3-3-3-3-3------------------------------ X4 ,PALM MUTED

FILL

     E------------
     B------------
     G-5----------
     D-5--2--4--5-
     A-3--2--4--5-
     E----0--2--3-

VERSE X4

BRIDGE
      C  E  F#  C         D           C          D         G
     E------------------------------------------------------------
     B------------------------------------------------------------
     G-5--------5-5-5-5-5--7-7-7-7-7--5-5-5-5-5--7-7-7-7-7--------
     D-5--2--4--5-5-5-5-5--7-7-7-7-7--5-5-5-5-5--7-7-7-7-7--5-5-5-
     A-3--2--4--3-3-3-3-3--5-5-5-5-5--3-3-3-3-3--5-5-5-5-5--5-5-5-
     E----0--2----------------------------------------------3-3-3-

CHORUS

N.P [NO PLAYING!!]                               C HOLD                D
I DONT WANNA TALK,I DONT WANNA ROCK,I DONT WANNA WAIT BY THE PHONE AND I DONT WANNA

         G    C                    G         C    E F# G
TELL U I LUV U,DONT WANNA TELL U I LUV U ANY MORE 

INTRO X 1

VERSE X 4 PALM MUTE

BRIDGE X 1

CHORUS X 1 BUT STARTING FROM THE BIT ,I DONT WANNA TELL U I LUV U ,YOU PLAY THAT 

LITTLE BIT AGAIN

INTERLUDE PART I 
        
        C      E  F# G
       E------------------
       B------------------
       G-5-5-5------------
       D-5-5-5--2--4--5-5-
       A-3-3-3--2--4--5-5-
       E--------0--2--3-3- X3

THEN ON THE 4TH TIME,INSTEAD OF THE LAST NOTES BEING G ITS CHANGES TO E,[WHICH IS THE START OF INTERLUDE PART 2!]

INTERLUDE PART 2


       E------------
       B------------
       G----4--5----
       D-2--4--5--5-
       A-2--2--3--5-
       E-0--------3- X 2 THEN X2 PALM MUTED. ON THE LAST TIME PALM MUTED,AFTER THE C
                         GO TO G THEN FINISH IT ON G!

CHORUS

INTRO X4 

ENJOY,HOPE U LIKE IT! PLEASE RATE WHAT U THINK BECAUSE THIS HAS TAKEN 4 HOURS TO TAB!
            
Submit corrections


        I Don't Wanna Rock lessons Hard to play? Try these video lessons and learn fast I Don't Wanna Rock lessons
        
↑ Back to top | Tablatures and chords for acoustic guitar and electric guitar, ukulele, drums are parodies/interpretations of the original songs. You may use it for private study, scholarship, research or language learning purposes only