» » »

Bowling For Soup - Greatest Day Tabs

Artists:  A B C D E F G H I J K L M N O P Q R S T U V W X Y Z # 

Greatest Day Tabs

(ver. 2) Click to play this song!
Bowling For Soup
 Rating:
4/5 (4 votes)

 Greatest Day lessons Tabs too difficult? Try these video lessons and learn fast
 
                \ = slide down
/ = slide up
* = palm mute


Intro:
                           
Guitar 1:                  Guitar 2 plays (on second time):
e--------------------------|---------------------|
B--------------------------|---------------------|
G--5-5555554---------------|--10\5--7-5-3--------|
D--5-5555554-3-3333335-----|---------------------|
A--3-3333332-3-3333335-----|---------------------|
E------------1-1111113-----|---------------------|


Verse 1:

I've got the keys to the car...     Go...

e--------------------------------|-----------------|
B--------------------------------|-----------------|  
G--55555555------------55555555--|-----------------|  
D--55555555--55555555--55555555--|--55555554-------|  
A--33333333--55555555--33333333--|--55555554-------|
E------------33333333------------|--33333332-------|


Bridge:

The sun is shining down and...          Say... This is gonna be my greatest day...

e------------------------------------|-------------------------------|
B------------------------------------|-------------------------------|
G--------5555--------5555------------|-------------------------------|
D--3333--5555--3333--5555--33333333--|--5555555555555555-------------|
A--3333--3333--3333--3333--33333333--|--5555555555555555-------------|
E--1111--------1111--------11111111--|--3333333333333333-------------|
                                         ***************


Chorus:

How far would I go?...

e|-------------------------------------------|
B|-------------------------------------------|
G|--55555555---------------------------------|
D|--55555555--33333333--5555555555555555-----|
A|--33333333--33333333--5555555555555555-----|
E|------------11111111--3333333333333333-----|
                         ***************


Intro:
                           
Guitar 1:                  Guitar 2 plays (on second time):
e--------------------------|---------------------|
B--------------------------|---------------------|
G--5-5555554---------------|--10\5--7-5-3--------|
D--5-5555554-3-3333335-----|---------------------|
A--3-3333332-3-3333335-----|---------------------|
E------------1-1111113-----|---------------------|


Verse 2:

Standing here...                    Go...

e--------------------------------|-----------------|
B--------------------------------|-----------------|  
G--55555555------------55555555--|-----------------|  
D--55555555--55555555--55555555--|--55555554-------|  
A--33333333--55555555--33333333--|--55555554-------|
E------------33333333------------|--33333332-------|


Bridge:

The sun is shining down and...          Say... This is gonna be my greatest day...

e------------------------------------|-------------------------------|
B------------------------------------|-------------------------------|
G--------5555--------5555------------|-------------------------------|
D--3333--5555--3333--5555--33333333--|--5555555555555555-------------|
A--3333--3333--3333--3333--33333333--|--5555555555555555-------------|
E--1111--------1111--------11111111--|--3333333333333333-------------|
                                         ***************


Chorus:

How far would I go?...

e|-------------------------------------------|
B|-------------------------------------------|
G|--55555555---------------------------------|
D|--55555555--33333333--5555555555555555-----|
A|--33333333--33333333--5555555555555555-----|
E|------------11111111--3333333333333333-----|
                         ***************

Choruds part 2:

My greatest day...

e|-------------------------------------------|
B|-------------------------------------------|
G|--55555555---------------------------------|
D|--55555555--33333333--5555555555555555-----|
A|--33333333--33333333--5555555555555555-----|
E|------------11111111--3333333333333333-----|


Solo:

e--------------------------------------------|
B--------------------------------------------|
G--------------------------------------------|
D-------22-5/7-5-3----3-2-------2/5-32-------|
A--3-55--------------------3-55-------3------|
E--------------------------------------------|



Verse 3:

I've got the keys to the car...     Go...

e--------------------------------|-----------------|
B--------------------------------|-----------------|  
G--5\------------------5\--------|-----------------|  
D--5\--------5\--------5\--------|--55555554-------|  
A--3\--------5\--------3\--------|--55555554-------|
E------------3\------------------|--33333332-------|


Bridge:

The sun is shining down and...          Say... This is gonna be my greatest day...

e------------------------------------|-------------------------------|
B------------------------------------|-------------------------------|
G--------5555--------5555------------|-------------------------------|
D--3333--5555--3333--5555--33333333--|--5555555555555555-------------|
A--3333--3333--3333--3333--33333333--|--5555555555555555-------------|
E--1111--------1111--------11111111--|--3333333333333333-------------|
                                         ***************


Choruds part 2:

My greatest day...

e|-------------------------------------------|
B|-------------------------------------------|
G|--55555555---------------------------------|
D|--55555555--33333333--5555555555555555-----|
A|--33333333--33333333--5555555555555555-----|
E|------------11111111--3333333333333333-----|


Chorus:

How far would I go?...

e|-------------------------------------------|
B|-------------------------------------------|
G|--55555555---------------------------------|
D|--55555555--33333333--5555555555555555-----|
A|--33333333--33333333--5555555555555555-----|
E|------------11111111--3333333333333333-----|
                         

Chorus/Ending:

How far would I go?...

e|----------------------------------------|------
B|----------------------------------------|------
G|--55555555------------------------------|--5\--
D|--55555555--33333333--5555555555555555--|--5\--
A|--33333333--33333333--5555555555555555--|--3\--
E|------------11111111--3333333333333333--|------
                         ***************         
              slowly begin to release the palm mute
                    leading into the ending
            
Submit corrections


        Greatest Day lessons Hard to play? Try these video lessons and learn fast Greatest Day lessons
        
↑ Back to top | Tablatures and chords for acoustic guitar and electric guitar, ukulele, drums are parodies/interpretations of the original songs. You may use it for private study, scholarship, research or language learning purposes only