» » »

Bowling For Soup - Emily Tabs

Artists:  A B C D E F G H I J K L M N O P Q R S T U V W X Y Z # 

Emily Tabs

(ver. 2) Click to play this song!
Bowling For Soup
 Rating:
4/5 (4 votes)

 Emily lessons Tabs too difficult? Try these video lessons and learn fast
 
                Bowling for soup - Emily
Standard tuning

. = palm mute

Intro
-------------------------------------------------------------
-------------------------------------------------------------
-------9-9-9---------7-7-7--------9-9-9--------7-7-7---------
--7-7--9-9-9----9-9--7-7-7---7-7--9-9-9---9-9--7-7-7---------
--7-7--7-7-7----9-9--5-5-5---7-7--7-7-7---9-9--5-5-5---------
--5-5-----------7-7----------5-5----------7-7----------------

Verse (first the bass plays alone, then the guitar comes)
-------------------------------------------------------------
-------------------------------------------------------------
-------------------------------7-7-7-7-----------------------
-7-7-7-7---6-6-6-6---4-4-4-4---7-7-7-7-----------------------
-7-7-7-7---6-6-6-6---4-4-4-4---5-5-5-5----5\4\5\4-0----------
-5-5-5-5---4-4-4-4---2-2-2-2---------------------------------
 . . . .   . . . .   . . . .   . . . .

Chorus (Emily...)
-------------------------------------------------------------
-------------------------------------------------------------
-------9-9-9---------7-7-7--------9-9-9--------7-7-7---------
--7-7--9-9-9----9-9--7-7-7---7-7--9-9-9---9-9--7-7-7---------
--7-7--7-7-7----9-9--5-5-5---7-7--7-7-7---9-9--5-5-5---------
--5-5-----------7-7----------5-5----------7-7----------------

Pre bridge (When you threw me away...)
-------------------------------------------------------------
-------------------------------------------------------------
-------------------------------------------------------------
-4-4-4-4---7-7-7-7---9-9-9-9-9-9-9---------------------------
-4-4-4-4---7-7-7-7---9-9-9-9-9-9-9---------------------------
-2-2-2-2---5-5-5-5---7-7-7-7-7-7-7---------------------------
 . . . .   . . . .   . . . . . . . 

Bridge (She was always such a pretty girl...)
-------------------------------------------------------------
-------------------------------------------------------------
-------9-9-9---------7-7-7--------9-9-9--------7-7-7---------
--7-7--9-9-9----9-9--7-7-7---7-7--9-9-9---9-9--7-7-7---------
--7-7--7-7-7----9-9--5-5-5---7-7--7-7-7---9-9--5-5-5-5\4\5\4-
--5-5-----------7-7----------5-5----------7-7----------------
                                                 . .

Solo
-------------------------------------------------------------
-------------------------------------------------------------
---------------------------7-6-7-6-9-7--6--------------------
--7-6-7-6-9-7---6-7-6-9-7-----------------7------------------
-------------------------------------------------------------
-------------------------------------------------------------

-------------------------------------------------------------
-------------------------------------------------------------
--9-9-7-7-6-6-7-7--9-9-7-7-6-6-7-7--9-9-7-7-6-6-7-7--6h7p6---
-----------------------------------------------------------7-
-------------------------------------------------------------
-------------------------------------------------------------
  . . . . . . . .  . . . . . . . .

Verse (first the bass plays alone, then the guitar comes)
-------------------------------------------------------------
-------------------------------------------------------------
-------------------------------7-7-7-7-----------------------
-7-7-7-7---6-6-6-6---4-4-4-4---7-7-7-7-----------------------
-7-7-7-7---6-6-6-6---4-4-4-4---5-5-5-5----5\4\5\4-0----------
-5-5-5-5---4-4-4-4---2-2-2-2---------------------------------
 . . . .   . . . .   . . . .   . . . .

Chorus (Emily...)
-------------------------------------------------------------
-------------------------------------------------------------
-------9-9-9---------7-7-7--------9-9-9--------7-7-7---------
--7-7--9-9-9----9-9--7-7-7---7-7--9-9-9---9-9--7-7-7---------
--7-7--7-7-7----9-9--5-5-5---7-7--7-7-7---9-9--5-5-5---------
--5-5-----------7-7----------5-5----------7-7----------------

Pre bridge (When you threw me away...)
-------------------------------------------------------------
-------------------------------------------------------------
-------------------------------------------------------------
-4-4-4-4---7-7-7-7---9-9-9-9-9-9-9---------------------------
-4-4-4-4---7-7-7-7---9-9-9-9-9-9-9---------------------------
-2-2-2-2---5-5-5-5---7-7-7-7-7-7-7---------------------------
 . . . .   . . . .   . . . . . . . 

Bridge (She was always such a pretty girl...)
-------------------------------------------------------------
-------------------------------------------------------------
-------9-9-9---------7-7-7--------9-9-9--------7-7-7---------
--7-7--9-9-9----9-9--7-7-7---7-7--9-9-9---9-9--7-7-7---------
--7-7--7-7-7----9-9--5-5-5---7-7--7-7-7---9-9--5-5-5-5\4\5\4-
--5-5-----------7-7----------5-5----------7-7----------------
                                                 . .
Interlude
-------------------------------------------------------------
-------------------------------------------------------------
------------------------------------------7-7-7-7------------
--7-7-7-7--7\--6-6-6-6--6\--4-4-4-4--4\---7-7-7-7------------
--7-7-7-7------6-6-6-6------4-4-4-4-------5-5-5-5--5\4\5\4-0-
--5-5-5-5------4-4-4-4------2-2-2-2--------------------------
  . . . .      . . . .      . . . .       . . . . 

-------------------------------------------------------------
-------------------------------------------------------------
-------------------------------------------------------------
-------------------------------------------------------------
----------------------------2/5------------------------------
--5-----7/9-------------2------------------------------------
After the bass solo go into the chorus releasing a palm muted D chord

Chorus (Emily...)
-------------------------------------------------------------
-------------------------------------------------------------
-------9-9-9---------7-7-7--------9-9-9--------7-7-7---------
--7-7--9-9-9----9-9--7-7-7---7-7--9-9-9---9-9--7-7-7---------
--7-7--7-7-7----9-9--5-5-5---7-7--7-7-7---9-9--5-5-5---------
--5-5-----------7-7----------5-5----------7-7----------------


THAT'S ALL, AND I KNOW IT'S PERFECT. ENJOY!
            
Submit corrections


        Emily lessons Hard to play? Try these video lessons and learn fast Emily lessons
        
↑ Back to top | Tablatures and chords for acoustic guitar and electric guitar, ukulele, drums are parodies/interpretations of the original songs. You may use it for private study, scholarship, research or language learning purposes only