» » »

Bowling For Soup - Down For The Count Tabs

Artists:  A B C D E F G H I J K L M N O P Q R S T U V W X Y Z # 

Down For The Count Tabs

(ver. 2) Click to play this song!
Bowling For Soup
 Rating:
4/5 (4 votes)

 Down For The Count lessons Tabs too difficult? Try these video lessons and learn fast
 
                Guitar Intro:
e|---------------------------------------------------------|
B|---------------------------------------------------------|
G|-44~~~---4-------44~~~---4--------99~~~---4--------44~~~-|
D|-44~~~---4-------44~~~---4--------99~~~---4--------44~~~-|
A|-22~~~---2-------22~~~---2--------77~~~---2--------22~~~-|
E|---------------------------------------------------------|

Verse:
e|--------------------------------------------------------|
B|--------------------------------------------------------|
G|--------------------------------------------------------|
D|-44444444-----------------------------------------------|
A|-22222222-44444444-22222222-44444444--------------------|
E|----------22222222-00000000-22222222--------------------|

Pre-Chorus:
e|--------------------------------------------------------|
B|--------------------------------------------------------|
G|—9999-----------------------------9999----------7777----|
D|—9999--9999---11-11-11-11—-9999---9999--9999----7777----|
A|—7777—-9999---11-11-11-11--9999---7777--9999----5555----|
E|-------7777---9--9--9--9---7777---------7777------------|

Chorus:
e|--------------------------------------------------------|
B|--------------------------------------------------------|
G|----666--------444---66---------------------------------|
D|----666----66—-444---66---------------------------------|
A|----444----66—-222—--44---------------------------------|
E|-----------44-------------------------------------------|

e|--------------------------------------------------------|
B|--------------------------------------------------------|
G|----666-------4--4--4--4--------------------------------|
D|----666----66—4–-4–-4–-4--------------------------------|
A|----444----66—2–-2–-2--2--------------------------------|
E|-----------44-------------------------------------------|
            
Submit corrections


        Down For The Count lessons Hard to play? Try these video lessons and learn fast Down For The Count lessons
        
↑ Back to top | Tablatures and chords for acoustic guitar and electric guitar, ukulele, drums are parodies/interpretations of the original songs. You may use it for private study, scholarship, research or language learning purposes only