» » »

Bowling For Soup - Cold Shower Tuesday Tabs

Artists:  A B C D E F G H I J K L M N O P Q R S T U V W X Y Z # 

Cold Shower Tuesday Tabs

(ver. 1) Click to play this song!
Bowling For Soup
 Rating:
4/5 (4 votes)

 Cold Shower Tuesday lessons Tabs too difficult? Try these video lessons and learn fast
 
                * = Play 8 times
pm= Palm muted
 = Accent on this note/chord







Intro

Guitar 2                  
e|------------------------------------------------------------
B|------------------------------------------------------------
G|-7-----7-----7-----------#---454------454------454----------
D|-7--5--7--5--7--5--2--7--#-57---75--57---75--57----7-5---7--
A|-5--5--5--5--5--5--2--7-------------------------------------
E|-*--3--*--3--*--3--0--5-------------------------------------
      *     *     *  *  *

Verse
                2x
e|------------------------
B|------------------------
G|--7--7--7---------77---#
D|--7--7--7--555555-77-7--
A|--5--5--5--555555-55-7--
E|--*--*--*--333333----5--
   pm.......           *


Pre-chorus


e|--------------
B|--------------
G|--------------
D|--5--7--4--2--
A|--5--7--4--2--
E|--3--5--2--0--
    *  *  *

Chorus


e|--------------|--------------
B|--------------|-------------
G|--7-----------|--7-----------
D|--7--9--5--7--|--7--9--5--7--
A|--5--9--5--7--|--5--9--5--7--
E|--*--7--3--5--|--*--7--3--5--
       *  *  *        *  *  *
Intro

e|------------------------------------------------------------
B|------------------------------------------------------------
G|-7-----7-----7---------------454------454------454----------
D|-7--5--7--5--7--5--2--7----57---75--57---75--57----7-5---7--
A|-5--5--5--5--5--5--2--7-------------------------------------
E|-*--3--*--3--*--3--0--5-------------------------------------
      *     *     *  *  *


Verse

                          2x
e|------------------------
B|------------------------
G|--7--7--7---------77---#
D|--7--7--7--555555-77-7-#
A|--5--5--5--555555-55-7--
E|--*--*--*--333333----5--
   pm.......           *

Pre-chorus


e|--------------
B|--------------
G|--------------
D|--5--7--4--2--
A|--5--7--4--2--
E|--3--5--2--0--
    *  *  *

Chorus


e|--------------|--------------|--------------
B|--------------|--------------|--------------
G|--7-----------|--7-----------|--7-----------
D|--7--9--5--7--|--7--9--5--7--|--7--9--5--7--
A|--5--9--5--7--|--5--9--5--7--|--5--9--5--7--
E|--*--7--3--5--|--*--7--3--5--|--*--7--3--5--
       *  *  *        *  *  >        *  *  *


Bridge


e|------------------------------|-------------------
B|------------------------------|-------------------
G|--7---------------7-----------|--7----------------
D|--7-------5-------7-------7---|--7--5--7-7-7-7-7--
A|--5-------5-------5-------7---|--5--5--7-7-7-7-7--
E|----------3---------------5---|--*--3--5-5-5-5-5--
                                      *  > * * * *
                                  pm....   ........


Chorus


e|--------------|--------------|--------------
B|--------------|--------------|--------------
G|--7-----------|--7-----------|--7-----------
D|--7--9--5--7--|--7--9--5--7--|--7--9--5--7--
A|--5--9--5--7--|--5--9--5--7--|--5--9--5--7--
E|--*--7--3--5--|--*--7--3--5--|--*--7--3--5--
       *  *  *        *  *  >        *  *  *

Outro


e|---------------------------------|---------------------------
B|---------------------------------|---------------------------
G|-7-7-7-7-------------------------|-7-7-7-7-------------------
D|-7-7-7-7-9-9-9-9-5-5-5-5-7-7-7-7-|-7-7-7-7-9-9-9-9-5-5-5-5-7-
A|-5-5-5-5-9-9-9-9-5-5-5-5-7-7-7-7-|-5-5-5-5-9-9-9-9-5-5-5-5-7-
E|---------7-7-7-7-3-3-3-3-5-5-5-5-|---------7-7-7-7-3-3-3-3-5-
                                                             >
            
Submit corrections


        Cold Shower Tuesday lessons Hard to play? Try these video lessons and learn fast Cold Shower Tuesday lessons
        
↑ Back to top | Tablatures and chords for acoustic guitar and electric guitar, ukulele, drums are parodies/interpretations of the original songs. You may use it for private study, scholarship, research or language learning purposes only