» » »

Bowling For Soup - A Friendly Goodbye Tabs

Artists:  A B C D E F G H I J K L M N O P Q R S T U V W X Y Z # 

A Friendly Goodbye Tabs

(ver. 3) Click to play this song!
Bowling For Soup
 Rating:
3.3/5 (20 votes)

 A Friendly Goodbye lessons Tabs too difficult? Try these video lessons and learn fast
 
                A FRIENDLY GOODBYE

E|------------------------------------------------|
B|------------------------------------------------|
G|--------9--7-7-7-9--------9--7-7-7-9------------|
D|--7-7-7-9--7-7-7-9--7-7-7-9--7-7-7-9------------|
A|--7-7-7-7--5-5-5-7--7-7-7-7--5-5-5-7------------|
E|--5-5-5-------------5-5-5-----------------------|
                                    FREEZE FRAME

E|------------------------------------------------|
B|------------------------------------------------|
G|--------9--7-7-7-9--------9--7-7-7-9------------|
D|--7-7-7-9--7-7-7-9--7-7-7-9--7-7-7-9------------|
A|--7-7-7-7--5-5-5-7--7-7-7-7--5-5-5-7------------|
E|--5-5-5-------------5-5-5-----------------------|

E|----------------------------------------------------------------------------|
B|----------------------------------------------------------------------------|
G|--2-2-2-2--2-2-2-2--4-4-4-4--4-4-4-4--7-7-7-7--7-7-7-7---9-9-9-9--9-9-9-9---|
D|--2-2-2-2--2-2-2-2--4-4-4-4--4-4-4-4--7-7-7-7--7-7-7-7---9-9-9-9--9-9-9-9---|
A|--0-0-0-0--0-0-0-0--2-2-2-2--2-2-2-2--5-5-5-5--5-5-5-5---7-7-7-7--7-7-7-7---|
E|----------------------------------------------------------------------------|
    I COULD LAY IT    ON REAL THICK     KNOW HOW YOU DON'T LIKE TO GET BOGGED DOWN
                      CAUSE I

E|----------------------------------------------------------------------------|
B|----------------------------------------------------------------------------|
G|--2-2-2-2--2-2-2-2--4-4-4-4--4-4-4-4--7-7-7-7--7-7-7-7---9-9-9-9--9-9-9-9---|
D|--2-2-2-2--2-2-2-2--4-4-4-4--4-4-4-4--7-7-7-7--7-7-7-7---9-9-9-9--9-9-9-9---|
A|--0-0-0-0--0-0-0-0--2-2-2-2--2-2-2-2--5-5-5-5--5-5-5-5---7-7-7-7--7-7-7-7---|
E|----------------------------------------------------------------------------|
       WITH ANYTHING  BOUT' US AND OUR  KICKASS TRUE       LOVE TALE

E|-----------------------------------------------------------------|
B|-----------------------------------------------------------------|
G|--X-X-7-X-X-7----X-X-9-X-X-9-----------------X-X-7-X-7-----------|
D|--X-X-7-X-X-7----X-X-9-X-X-9---X-X-7-X-X-7---X-X-7-X-7-----------|
A|--X-X-5-X-X-5----X-X-7-X-X-7---X-X-7-X-X-7---X-X-5-X-5-----------|
E|-------------------------------X-X-5-X-X-5-----------------------|
    SORRY I SWORE  JUST THEN     KNOW          YOU HATE IT
                   CAUSE I

E|----------------------------------------------------------------------------------|
B|----------------------------------------------------------------------------------|
G|--X-X-7-X-X-7--X-X-9-X-X-9------------------X-X-7-X-7----9--------------9---------|
D|--X-X-7-X-X-7--X-X-9-X-X-9---X-X-7-X-X-7----X-X-7-X-7----9--------------9---------|
A|--X-X-5-X-X-5--X-X-7-X-X-7---X-X-7-X-X-7----X-X-5-X-5----7--------------7---------|
E|-----------------------------X-X-5-X-X-5------------------------------------------|
    BY THE WAY    YOU BAKED ME   REALLY SUCKED   BUT I ATE IT   LOVED YOU EVEN  HERE'S A 
    THAT CAKE                                    CAUSE I        MORE THAN YOU   FRIENDLY                
                                                                COULD EVER      GOODBYE
                                                                IMAGINE         5 6 7

A
AIN'T THAT A B WITH AN ITCH
E
YOU GOT A MOTHER TRUCKER
A
YOU CAN GO TO H,E DOUBLE
E 
HOCKEY STICKS AND F YOURSELF
A 
CAUSE I'M FLIPPING GOSH DARN
E                           D            E
SICK OF ALL THE S WORDS YOU PUT ME THROUGH SO

E|------------------------------------------------|
B|------------------------------------------------|
G|--------9--7-7-7-9--------9--7-7-7-9------------|
D|--7-7-7-9--7-7-7-9--7-7-7-9--7-7-7-9------------|
A|--7-7-7-7--5-5-5-7--7-7-7-7--5-5-5-7------------|
E|--5-5-5-------------5-5-5-----------------------|
    F YOU             F YOU

E|-----------------------------------------------------------------------------|
B|-----------------------------------------------------------------------------|
G|--2-2-2-2--2-2-2-2--4-4-4-4--4-4-4-4--7-7-7-7--7-7-7-7----9-9-9-9--9-9-9-9---|
D|--2-2-2-2--2-2-2-2--4-4-4-4--4-4-4-4--7-7-7-7--7-7-7-7----9-9-9-9--9-9-9-9---|
A|--0-0-0-0--0-0-0-0--2-2-2-2--2-2-2-2--5-5-5-5--5-5-5-5----7-7-7-7--7-7-7-7---|
E|-----------------------------------------------------------------------------|
    I COULD HANG IT   OUT TO DRY CAUSE  I KNOW HOW YOU LIKE ALL OF YOUR LAUNDRY NEAT

E|------------------------------------------------------------------------------|
B|------------------------------------------------------------------------------|
G|--2-2-2-2--2-2-2-2--4-4-4-4--4-4-4-4----7-7-7-7--7-7-7-7---9-9-9-9--9-9-9-9---|
D|--2-2-2-2--2-2-2-2--4-4-4-4--4-4-4-4----7-7-7-7--7-7-7-7---9-9-9-9--9-9-9-9---|
A|--0-0-0-0--0-0-0-0--2-2-2-2--2-2-2-2----5-5-5-5--5-5-5-5---7-7-7-7--7-7-7-7---|
E|------------------------------------------------------------------------------|
    AND NOT JUST      THROWN AROUND LIKE  A CHAINSAW IN      NEED OF JUGGLING 

E|-------------------------------------------------------------------|
B|-------------------------------------------------------------------|
G|--X-X-7-X-X-7------X-X-9-X-X-9-----------------X-X-7-X-7-----------|
D|--X-X-7-X-X-7------X-X-9-X-X-9---X-X-7-X-X-7---X-X-7-X-7-----------|
A|--X-X-5-X-X-5------X-X-7-X-X-7---X-X-7-X-X-7---X-X-5-X-5-----------|
E|---------------------------------X-X-5-X-X-5-----------------------|
    SORRY I FLIPPED  YOU OFF       KNOW HOW      YOU HATE IT
                     CAUSE I

E|------------------------------------------------------------------------------------|
B|------------------------------------------------------------------------------------|
G|--X-X-7-X-X-7----X-X-9-X-X-9------------------X-X-7-X-7--9--------------9-----------|
D|--X-X-7-X-X-7----X-X-9-X-X-9---X-X-7-X-X-7----X-X-7-X-7--9--------------9-----------|
A|--X-X-5-X-X-5----X-X-7-X-X-7---X-X-7-X-X-7----X-X-5-X-5--7--------------7-----------|
E|-------------------------------X-X-5-X-X-5------------------------------------------|
    AND THAT        PORN I SAID    ERASED WELL      I SAVED IT  LOVED YOU EVEN   HERE'S A
    HOMEMADE        THAT I                          CAUSE I     MORE THAN I      FRIENDLY
                                                                COULD EVER       GOODBYE
                                                                IMAGINE          5 6 7


A
AIN'T THAT A B WITH AN ITCH
E
YOU GOT A MOTHER TRUCKER
A
YOU CAN GO TO H,E DOUBLE
E 
HOCKEY STICKS AND F YOURSELF
A 
CAUSE I'M FLIPPING GOSH DARN
E                           D            E
SICK OF ALL THE S WORDS YOU PUT ME THROUGH SO

E|------------------------------------------------|
B|------------------------------------------------|
G|--------9--7-7-7-9--------9--7-7-7-9------------|
D|--7-7-7-9--7-7-7-9--7-7-7-9--7-7-7-9------------|
A|--7-7-7-7--5-5-5-7--7-7-7-7--5-5-5-7------------|
E|--5-5-5-------------5-5-5-----------------------|
    F YOU             F YOU

E|------------------------------------------------|
B|------------------------------------------------|
G|--------9--7-7-7-9--------9--7-7-7-9------------|
D|--7-7-7-9--7-7-7-9--7-7-7-9--7-7-7-9------------|
A|--7-7-7-7--5-5-5-7--7-7-7-7--5-5-5-7------------|
E|--5-5-5-------------5-5-5-----------------------|
    F YOU             F YOU                 

E|-------------------------------------------------------|
B|-------------------------------------------------------|
G|-----------------4-4-4-4-4-4--7-7-7-7-7-7--------------|
D|--4-4-4-4-4-4----4-4-4-4-4-4--7-7-7-7-7-7---7-7-6------|
A|--4-4-4-4-4-4----2-2-2-2-2-2--5-5-5-5-5-5---7-7-4------|
E|--2-2-2-2-2-2-------------------------------5-5-4------|
    I'LL SEND YOU  POSTCARD     I'M GLAD      HERE
    A              THAT SAYS    YOU'RE NOT

E|-------------------------------------------------------|
B|-------------------------------------------------------|
G|-----------------4-4-4-4-4-4--7-7-7-7-7-7--------------|
D|--4-4-4-4-4-4----4-4-4-4-4-4--7-7-7-7-7-7---7-7-6------|
A|--4-4-4-4-4-4----2-2-2-2-2-2--5-5-5-5-5-5---7-7-4------|
E|--2-2-2-2-2-2-------------------------------5-5-4------|
   I'LL BUY YOU   A T-SHIRT    USE IT TO     THE BEER
                  BUT I'LL     WIPE UP

E|---------------------------------------------------------------------------------|
B|---------------------------------------------------------------------------------|
G|--7-7-7-7-7-7----9-9-9-9-9-9-------------------------4-------------7-------------|
D|--7-7-7-7-7-7----9-9-9-9-9-9---7--7-----4-4-4-4-4-4--4-------------7---------3---|
A|--5-5-5-5-5-5----7-7-7-7-7-7---7--7-----4-4-4-4-4-4--2-------------5---------3---|
E|-------------------------------5--5-----2-2-2-2-2-2--------------------------1---|
    THAT SPILLED   SPILLING MY   FRIENDS  YOU AND I    REALLY DON'T  THING  TO SAY
    WHILE I WAS    GUTS TO MY    ABOUT                 HAVE ANY      ELSE 
                                                                     NICE

BUT F YOU, F YOU

5, 6, 7

A
AIN'T THAT A B WITH AN ITCH
E
YOU GOT A MOTHER TRUCKER
A
YOU CAN GO TO H,E DOUBLE
E 
HOCKEY STICKS AND F YOURSELF
A 
CAUSE I'M FLIPPING GOSH DARN
E                           D            E
SICK OF ALL THE S WORDS YOU PUT ME THROUGH SO

E|------------------------------------------------|
B|------------------------------------------------|
G|--------9--7-7-7-9--------9--7-7-7-9------------|
D|--7-7-7-9--7-7-7-9--7-7-7-9--7-7-7-9------------|
A|--7-7-7-7--5-5-5-7--7-7-7-7--5-5-5-7------------|
E|--5-5-5-------------5-5-5-----------------------|
    F YOU             F YOU

E|------------------------------------------------|
B|------------------------------------------------|
G|--------9--7-7-7-9--------9--7-7-7-9------------|
D|--7-7-7-9--7-7-7-9--7-7-7-9--7-7-7-9------------|
A|--7-7-7-7--5-5-5-7--7-7-7-7--5-5-5-7------------|
E|--5-5-5-------------5-5-5-----------------------|
    F YOU             F YOU

E|--------------------------|
B|--------------------------|
G|-----9--7--9-----9--7--9--|
D|--7--9--7--9--7--9--7--9--|
A|--7--7--5--7--7--7--5--7--|
E|--5-----------5-----------|
            
Submit corrections


        A Friendly Goodbye lessons Hard to play? Try these video lessons and learn fast A Friendly Goodbye lessons
        
↑ Back to top | Tablatures and chords for acoustic guitar and electric guitar, ukulele, drums are parodies/interpretations of the original songs. You may use it for private study, scholarship, research or language learning purposes only