» » »

Bouncing Souls - Neurotic Tabs

Artists:  A B C D E F G H I J K L M N O P Q R S T U V W X Y Z # 

Neurotic Tabs

(ver. 1) Click to play this song!
Bouncing Souls
 Rating:
4/5 (4 votes)

 Neurotic lessons Tabs too difficult? Try these video lessons and learn fast
 
                -2-2-2-2-2-2-2-22----------------------------------------------------|--x5--|-
------------------2-2-2-2-2-2-2-22------------------0-0-0-0-0-0-0-00-|------|-
-----------------------------------2-2-2-2-2-2-2-22------------------|------|-
                                                                              

---------------------------|-----|------------------|-----|-----|---|---------
---------------------------|-----|------------------|-----|-----|---|---------
---------------------------|-----|------------------|-----|-----|---|---------
-4-4-4-4--9-9-9-9--2-2-2-2-|-o/o-|-4-4-4-4--9-9-9-9-|-o/o-|-o/o-|-2-|---------
-2-2-2-2--7-7-7-7--0-0-0-0-|-----|-2-2-2-2--7-7-7-7-|-----|-----|-0-|---------
---------------------------|-----|------------------|-----|-----|---|---------
                                                                              

-9-9-9-9-9-9-9-9-9-------------------------------2-2-2-2-2-2-2-2-|-o/o-|-o/o|-
-7-7-7-7-7-7-7-7-7-9-9-9-9-9-9-9-4-4-4-4-4-4-4-4-0-0-0-0-0-0-0-0-|-----|----|-
-------------------7-7-7-7-7-7-7-2-2-2-2-2-2-2-2-----------------|-----|----|-
 pm*************************************************************              

-4-4-4-4-4-4-4-4-9-9-9-9-9-9-9-9-4-4-4-4-4-4-4-4-2-2-2-2-2-2-2-2-|-o/o-|-o/o|-
-2-2-2-2-2-2-2-2-7-7-7-7-7-7-7-7-0-2-2-2-2-2-2-2-0-0-0-0-0-0-0-0-|-----|----|-
                                                                              

-4-4-4-4-4-4-4-4-9-9-9-9-9-9-9-9-4-4-4-4-4-4-4-4-4-2-2-2-2-2-2-2-2|-----------
-2-2-2-2-2-2-2-2-7-7-7-7-7-7-7-7-2-2-2-2-2-2-2-2-2-0-0-0-0-0-0-0-0|-----------
            
Submit corrections


        Neurotic lessons Hard to play? Try these video lessons and learn fast Neurotic lessons
        
↑ Back to top | Tablatures and chords for acoustic guitar and electric guitar, ukulele, drums are parodies/interpretations of the original songs. You may use it for private study, scholarship, research or language learning purposes only